Cifra Club

Mountain Medley

Eric Johnson

Cifrado: Principal (guitarra y guitarra eléctrica)
tono: Ab
(intro)

Na seqüência de acordes do ritmo não é especificado (ouvir as versões ao vivo para obtê-lo)

|-----------------------------------------------------|
|--4--------------------------------------------------|
|--3--------------------------------------------------|
|-----------------------------------------------------|
|--6---6p4h6p4h6p4h6p4--------------------------------|
|-----------------------------------------------------|

|-----------------------------------------------------|
|-----------------------------------------------------|
|--8h10p8h10p8h10p8h10--------------------------------|
|------------------------8h10p8h10p8h10p8h10p8--------|
|-----------------------------------------------------|
|-----------------------------------------------------|

|---------11------------------------------------------|
|-4--6--------6---------4---6-------------------------|
|-4--6----11--6--------4----6-------------------------|
|---------9---6-------4-------------------------------|
|-2--4----------------------4-------------------------|
|-----------------------------------------------------|

Principais sequência de acordes (we'll get on top of that mountain)
|------(3)-------------6--6---10---8------------------|
|--8----6---4---1------4--4---8-----------------------|
|--8----5---3---1------3-(3)--8----8------------------|
|-(8)---6---1---1---------6---8----6------------------|X No entanto, muitas vezes
|--6----3---1---3------6--3---------------------------|
|---------------4-------------------------------------|

Outro acorde bit (and a' when, it might happen to you)
|---------------------------11--10--------------------|
|-1-3--1---4--3---1--3--1-----------------------------|
|-1-3--1---3--3---1--3--1---10--10--------------------|
|-1-3--1---5--3---1--3--1---8---8---------------------|
|-----------------------------------------------------|
|-1-3--4---6--6---1--3--4-----------------------------|
Compositor não encontrado.
Colaboración y revisión:
  • Paulo Ricardo
26 vistas
    • ½ Tono
    • A
    • Bb
    • B
    • C
    • Db
    • D
    • Eb
    • E
    • F
    • F#
    • G
    • Ab
  • Agregar a la lista

    0 comentarios

    Ver todos los comentarios

    ¿Lograste tocar?

    0 Tocaron 0 Aún no

    ¡Graba un video tocando Mountain Medley y envíanoslo!

    00:00 / 00:00
    Outros vídeos desta música
    Repetir Calidad Automático
    Outros vídeos desta música
    00:00 / 00:00
    Automático
    OK