Cifra Club

On The Way To Love

Eric Johnson

Cifrado: Principal (guitarra y guitarra eléctrica)
tono: E
(intro)
E|---------------------------------------------------------------------------|
B|-------------------------------------s2-3-5-3------------------------------|
G|----------------------------------2-----------5s4-2-4-2--------------------|
D|----------------------------2-4-2-----------------------2-4----------------|
A|-----------0-0-----0-0--2s4---------------------------------2-4------------|
E|-0-3-0-3h5-----3h5----------------------------------------------3b4r-0-----|

E|-------------------------------5-0-----------------------------------------|
B|---10----------------------5-7---------------------------------------------|
G|----9---9-9------------------------7-5-------------------------------------|
D|--7----11------9-7------7 --------------7-----7----------------------------|
A|--------7---0---0---0---0----------------7h9----2h4-2h4h0--0---0-----------|
E|-----------------------------------------------------------------0-2-------|

E|---------------------------------------------------------------------------|
B|-------------------------------------------3-------------------------------|
G|--2-------2----6-4h2--------2-------2----2-2-------------------------------|
D|----2-2h4----7----------------2-2s4----------------------------------------|
A|--------------------------0-----------0--0---------------------------------|
E|----------------------0-2--------------------------------------------------|
                       ^ Quase inaudível, tambores (desconhecido)
E|---------------0---0-------------------------------------------------------|
B|-------2-3-----------3---------2-3-----5--5--------------------------------|
G|-----2-----1s2---2-----------2---------4--4--------------------------------|
D|---2-----------------------2-----------------------------------------------|
A|-0-----------------------0----------4-----5--------------------------------|
E|---------------------------------------------------------------------------|
                                        
E|---------------------------------------------------------------------------|
B|------2-3-------3-2--2-0---------------5-----5-----------------------------|
G|----2-----------4-4--2-1---2-----------4-----4-----------------------------|
D|---------------------------4-------------(2)-------------------------------|
A|- 0----------2----------------4--------------------------------------------|
E|------------------2-------------(2)-0------------0h2p0---------------------|

E|-----------------0-----0---------------------------------------------------|
B|--------2-3-------------------------2-3------5--5-------3-2----------------|
G|------2------------------7--------2----------4--4-------4-2----------------|
D|----2--------6s7---(7)-----7----2---------------------4--------------------|
A|--0---------------------------0-----------4-----5---2----------------------|
E|--------------------------------------------------------------2-0----------|

E|-------------5------4-----------------------------------------------------------|
B|----0--3~----7------5-----------------------------------------------------------|
G|----0--2~----6------4-----------------------------------------------------------|
D|-----------4-4----2-2-----------------------------------------------------------|
A|--------------------------------------------------------------------------------|
E|--3------------------------------------------------------------------------|----|
Composición de Eric Johnson
Colaboración y revisión:
  • Paulo Ricardo
38 vistas
    • ½ Tono
    • A
    • Bb
    • B
    • C
    • Db
    • D
    • Eb
    • E
    • F
    • F#
    • G
    • Ab
  • Agregar a la lista

    0 comentarios

    Ver todos los comentarios

    ¿Lograste tocar?

    0 Tocaron 0 Aún no

    ¡Graba un video tocando On The Way To Love y envíanoslo!

    00:00 / 00:00
    Outros vídeos desta música
    Repetir Calidad Automático
    Outros vídeos desta música
    00:00 / 00:00
    Automático
    OK