Cifra Club

Song For George

Eric Johnson

Cifrado: Principal (guitarra y guitarra eléctrica)
tono: C
 classical guitar

the string tuned   MI = RE,    SI = LA ,  mi - re


|-0--------|----5\7--10------3---0--0--------0---|
|--5-------|----------------------------------3------|
|---0------|------------------------------2p0--------|
|----0-----|----0-------------0------0--------2--0---|
|-----0----|-----------------------------------------|
|------5p0-|-0-------------------0---------------0---|

|---0-----------------------------------|
|---------------------------------------|
|------------------------------------|
|-0-------0--------0---------0---0---|
|-------0------0h3----------------3-----|
|-----3---------------0-----------------|

|----5\7--10------3---0--0--------0---|
|----------------------------------3------|
|------------------------------2p0--------|
|----0-------------0------0--------2--0---|
|-----------------------------------------|
|-0-------------------0---------------0---|

|---0------------------------|
|----------------------------|
|-------------------------|
|-0-------0--------0------|
|-------0------0h3-----------|
|-----3---------------0------|

|----------0----3---0-------------------|
|----3----------------------------------|
|------0--------0---0------0------------|
|----3-------3--------------------------|
|-----------------------------------3---|
|-3------3---------------5---5----------|

|-------7------0------------------|
|---5-8---8-------0-----0---------|
|-5----------------0--------------|
|--------------------5---3---0----|
|---------------------------------|
|------------------------------0--|

|----5\7--10------3---0--0--------0---|
|------------------------------0---3------|
|--------------------------------0--------|
|----0-------------0------0--------2--0---|
|-----------------------------------------|
|---------------------0---------------0---|

|---0------------------------|
|----------------------------|
|-------------------------|
|-0---------0-----0-------|
|--------0-----0h3-----------|
|-----3---------------0------|

|-12-10-----7-7\6-5-----0-3-2-0-----10---0---7-7\6-5---|
|-------12-9--9\8-7----2----------0----8---0-9-9\8-7---|
|-------------------------------0----------------------|
|------------------------------------------------------|
|----0-------------------------------------------------|
|------------------------------------------------------|

|-----------|
|-----------|
|-----------|
|-----0-----|
|-0h3-------|
|-----------|

|----5\7--10-----3----0--0--------0---|
|------------------------------0---3------|
|--------------------------------0--------|
|----0-------------0------0--------2--0---|
|-----------------------------------------|
|-0------------------0----------------0---|

|---0---------------------------------|
|-------------------------------------|
|----------------------------------|
|-0---------0------0-------0---0---|
|--------0-----0h3--------------3-----|
|-----3---------------0---------------|

|----5\7--10-----3----0--0--------0---|
|------------------------------0---3------|
|--------------------------------0--------|
|----0-------------0------0--------2--0---|
|-----------------------------------------|
|-0------------------0----------------0---|

|---0------------------------|
|----------------------------|
|-------------------------|
|-0---------0------0------|
|--------0-----0h3-----------|
|-----3---------------0------|

|----------0----3---0-------------------|
|----3----------------------------------|
|------0--------0---0------0------------|
|----3-------3--------------------------|
|-----------------------------------3---|
|-3------3---------------5---5----------|

|-------7------0------------------|
|---5-8---8------0-----0----------|
|-5----------------0--------------|
|--------------------5---3---0----|
|---------------------------------|
|-------------------------------0-|

|----5\7--10-------3---0--0--------0---|
|-------------------------------0---3------|
|---------------------------------0--------|
|----0-------------0-------0--------2--0---|
|------------------------------------------|
|----------------------0---------------0---|

|---0------------------------|
|----------------------------|
|-------------------------|
|-0--------0-------0------|
|-------0------0h3-----------|
|-----3---------------0------|

|-12-10-----7-7\6-5-----0-3-2-0------10---0---7-7\6-5---|
|-------12-9--9\8-7---2------------0----8---0-9-9\8-7---|
|--------------------------------0----------------------|
|-------------------------------------------------------|
|----0--------------------------------------------------|
|-------------------------------------------------------|

|--------10------10-10-10\-------10------10-10---------|
|----/12-12-12---12-12-------/12-12-12---12-12-12\-----|
|-----11----11---------------/11----11---------11\-----|
|--------------0-----------------------0---------------|
|------------------------------------------------------|
|-0---------------------------0------------------------|

|-----5p3----5-3-----5p3---3-5/7-----------|
|---------5---------------------8---5-5----|
|------------------5-----5-----------5-----|
|--------------0---------------------------|
|------------------------------------------|
|-0----------------------------------------|

|--------10------10-10-10\-------10------10-10---------|
|----/12-12-12---12-12-------/12-12-12---12-12-12\-----|
|----/11----11---------------/11----11---------11\-----|
|--------------0-----------------------0---------------|
|------------------------------------------------------|
|-0---------------------------0------------------------|

|-----5p3----5-3-----5p3---3-5/7-----------|
|---------5-------5------5------8---5-5----|
|------------------------------------5-----|
|--------------0---------------------------|
|------------------------------------------|
|-0----------------------------------------|

|----------0----3---0-------------------|
|----3----------------------------------|
|------0--------0---0------0------------|
|----3-------3--------------------------|
|-----------------------------------3---|
|-3------3---------------5---5----------|

|-------7------0-------------------|
|---5-8---8-------0-----0----------|
|-5-----------------0--------------|
|---------------------5---3---0----|
|----------------------------------|
|----------------------------------|

|----5\7--10-----3----0--0--------0---|
|------------------------------0---3------|
|--------------------------------0--------|
|----0-------------0------0--------2--0---|
|-----------------------------------------|
|-0------------------0----------------0---|

|---0------------------------|
|----------------------------|
|-------------------------|
|-0---------0------0------|
|--------0-----0h3-----------|
|-----3---------------0------|

|-12-10-----7-7\6-5-----0-3-2---0------10---0---7-7\6-5---|
|-------12-9--9\8-7---2-------------0-----8---0-9-9\8-7---|
|---------------------------------0-----------------------|
|---------------------------------------------------------|
|----0----------------------------------------------------|
|---------------------------------------------------------|

|-----0---------0---0-----------------0----------------0----|
|-----0---------0---0-----------------0-------------3-------|
|---------------------0-----------------------------0--0----|
|-----0-0---0-----3-------3p0---0-----0-0---0-----3---------|
|---------3-------------------3-----------3--------------3--|
|-0-----------0---------0---------0-------------0-----------|

|-0---------------|
|-0---------------|
|-----------------|
|-0--------0------|
|------0p3--------|
|-----------------|

|-----0---------0---0-----------------0----------------0----0--|
|-----0---------0---0-----------------0-------------3-------0--|
|---------------------0-----------------------------0--0-------|
|-----0-0---0-----3-------3p0---0-----0-0---0-----3---------0--|
|---------3-------------------3-----------3--------------3-----|
|-0-----------0---------0---------0-------------0--------------|

|----------0----3---0-------------------|
|----3----------------------------------|
|------0--------0---0------0------------|
|----3-------3--------------------------|
|-----------------------------------3---|
|-3------3---------------5---5----------|

|-------7------0------------------|
|---5-8---8------0-----0----------|
|-5----------------0--------------|
|--------------------5---3p0------|
|---------------------------------|
|---------------------------------|

|----5\7--10------3---0--0--------0---|
|------------------------------0---3------|
|--------------------------------0--------|
|----0-------------0------0--------2--0---|
|-----------------------------------------|
|-0-------------------0---------------0---|

|---0----------------------------0------|
|-------------------------------5-------|
|------------------------------0--------|
|-0--------0-------0----------0----0----|
|-------0------0h3-----------0----0-----|
|-----3---------------0-----5----0------|




steve,  *
Composición de Eric Johnson
44 vistas
    • ½ Tono
    • A
    • Bb
    • B
    • C
    • Db
    • D
    • Eb
    • E
    • F
    • F#
    • G
    • Ab
  • Agregar a la lista

    0 comentarios

    Ver todos los comentarios

    ¿Lograste tocar?

    0 Tocaron 0 Aún no

    ¡Graba un video tocando Song For George y envíanoslo!

    00:00 / 00:00
    Outros vídeos desta música
    Repetir Calidad Automático
    Outros vídeos desta música
    00:00 / 00:00
    Automático
    OK