Cifra Club

SRV

Eric Johnson

Cifrado: Principal (guitarra y guitarra eléctrica)
tono: E
Gtr I (E A D G B E)

Q=128
 4/4
  Gtr I
                  ~           PM
  Q   E  E E  E E E   +Q    E E  a  E E  a  E E   Q  E E E E E S S
|-------------------|---------------------------|-------------------|
|-------------------|---------------------------|-------------------|
|-----------------9-|-(9)-----------------------|-------------------|
|----------9-11-----|------11---------9---------|--------2h4p2-4s6--|
|----11-11----------|-----------10s11---10s11-7-|----2h4------------|
|---------------9---|---------9-----------------|-5-----------------|


                    PM         PM|
  Q  E E Q.   e   E E  Q  E  E E E   a  Q  Q   E E E E
|---------------|------------------|-------------------|
|-5--x---5----5-|------------------|-----------------9-|
|-4--x---2----4-|------------------|-9s11--9---------9-|
|--------2----2-|---------9-11-----|-9s11--9--11-9-x-9-|
|------2--------|-----11-----------|----------11-9-x-7-|
|---------------|---9----------9-9-|---------------x-5-|

  +Q   E E E a  E  E E   a  E  E E E E a E E e   Q   E  E E  E E a  E
|----------------------|-----------------------|----------------------|
|-(9)------------------|-----------------------|----------------------|
|-(9)------4-4-(4)-----|-4-(4)-----------------|-----------------9s11-|
|-(9)------4-4h=6--4---|-4h=6--4---------------|----------9-11---9s11-|
|-(7)--4-7-----------7-|---------7-4-2---------|----11-11-------------|
|-(5)------------------|---------------2h4-2-0-|----------------------|


            PM
   +Q    E  E  E E E  E    Q   E E  E  e E  a  E    +E   E  S  S  e E E a  E E
|-----------------------|------------------------|-----------------------------|
|------------------9-10-|----------10-12---12s14-|-(14)s12---------------------|
|-(11)--13----13--------|--------9---------11s13-|-(13)s11-13p11-------------9-|
|-(11)--11----11-9------|-----11-----------------|---------------14------------|
|-----------------------|-12---------------------|--------------------7-9s11---|
|----------12-----------|------------------------|-----------------------------|

  +E  E  E  E E  Q  e   a  Q  q   E E E E   +E  e E E E a  E E E
|---------------------|-------------------|----------------------|
|---------------------|-----------------9-|-(9)------------------|
|-(9)-----------------|-9s11s=9---------9-|-(9)-------4-4-(4)----|
|-------------9-11----|-9s11s=9--11-9---9-|-(9)-------4-4h=6p4---|
|-------11-11---------|----------11-9---7-|-(7)---4-7----------7-|
|-----9---------------|-----------------5-|-(5)------------------|


                                                            ~
  a  E  E E E E a E E e   E E a  Q   E E e E   E E Q  E E E E
|-----------------------|--------------------|----------------|
|-5-(5)-----------------|--------------------|--------------5-|
|-4-(4)-----------------|-----6h=8---6-4---6-|-----6--4-6---4-|
|-4h=6--4---------------|-----4-(4)--4-4---6-|---6-6--4-6-----|
|---------7-4-2---------|--------------------|-4---4------4---|
|---------------2h4-2-0-|---7----------------|----------------|

  +E  E E E E E e E   S S E q  a E E E E   Q  E  E  E  E  E E
|-------------------|--------------------|--------------------|
|-(5)---------------|--------------------|---------12---------|
|-(4)---6---4-6-----|-----9--------------|------------11------|
|-------6-6-4-6-----|-7h9---9--4s5-2-4---|--------------------|
|-----4-----------7-|----------4s5-2-4-2-|--------------------|
|-------------------|--------------------|-0--0-11-------11-9-|

   H     Q.   a  E     +Q   E E E E E E   a  E  E E E E a E E e
|-------------------|-------------------|-----------------------|
|--9-----9----------|-------------------|-----------------------|
|--6-----8----9-(9)-|--(9)--4-----------|-4-(4)-----------------|
|--6-----6----9h11--|-(11)----6-4-------|-4h=6--4---------------|
|-------------0-(0)-|--(0)--------7-4-7-|---------7-4-2---------|
|-(9)----7----------|-------------------|---------------2h4-2-0-|


                  ~
  Q   E  E E  E E E   +Q   a  Q  E Q  E   +Q   a E E a E Q  e
|-------------------|-------------------|---------------------|
|-------------------|-------------------|---------------------|
|-----------------9-|-(9)--4-(4)-4------|---------------------|
|----------9-11-----|------4h=6--4------|----------2-2h4----2-|
|----11-11----------|--------------7----|------2h4-------4----|
|---------------0---|-----------------5-|-(5)-----------------|

  Q  a  Q   +E  E E S S   q   E  E E  E Q    a  Q  Q  E E E E
|----4h=5---(5)-----2h4-|------------------|------------------|
|-----------------5-----|------------------|----------------9-|
|----4h=6---(6)---2-2h4-|------------------|-9s11s=9--6-4---9-|
|---------------2-------|----------9-11----|-9s11s=9--6-4---9-|
|----7-(7)--(7)---------|----11-11---------|----------------7-|
|-----------------------|---------------9--|----------------5-|

  +Q   E E E a E E E   a  E  E E E E a E E e   E E a  Q   E e E E
|--------------------|---------------------0-|--------------------|
|-(9)----------------|-5-(5)-----------------|--------------------|
|-(9)------4-----4---|-----------------------|-----6h=8---6-4---6-|
|-(9)------4-4h6-4---|-4h=6--4---------------|-----4-(4)--4-4---6-|
|-(7)--4-7---------7-|---------7-4-2---------|--------------------|
|-(5)----------------|---------------2h4-2-0-|---7----------------|


               ~
  E E Q  E E E E   +E  E Q  E E E E   E  E  E  E E  E E a  E
|----------------|------------------|------------------------|
|--------------5-|-(5)--------------|------------------------|
|-----6--4-6---4-|-(4)---6----6-----|-9s11-13-11s9-----------|
|---6-6--4-6-----|-------6--4-6---x-|-9s11-14-11s9-11p9-9h11-|
|-4---4--4-4-----|-----4------------|--------------11p9-9h11-|
|----------------|------------------|------------------------|

   +Q.    E  E  E  e E   Q.   E  Q.   a  E     +Q   E E E E E E
|----------------------|--------------------|-------------------|
|-----------12---------|-9-------9----------|-------------------|
|--------------11------|-6-------8----9-(9)-|--(9)--4-----------|
|-(11)------------11---|---------6----9h11--|-(11)----6-4-------|
|-(11)-----------------|--------------0-(0)-|--(0)--------7-x-x-|
|--------11----------9-|-9----7-(7)---------|-------------------|


            Gtr II
  H    Q  E E   +H     Q  Q
|-0----0------|---------------|
|-----------2-|-(2)s===3s=4/--|
|-1----2----2-|-(2)s===3s=4/--|
|-----------2-|-(2)s===3s=4/--|
|-------------|---------------|
|-------------|---------------|
|
| Gtr III
| W              W
|-------------|---------------|
|-------------|---------------|
|-------------|---------------|
|-------------|---------------|
|-------------|---------------|
|-------------|---------------|


                                                 ~~~~
  Q.         E    E  a       +E   +E    a       +E
|----------------------------------------------------|
|------------9---12-12pb14==(12)-(12)--12pb14==(12)--|
|----------------------------------------------------|
|----------------------------------------------------|
|----------------------------------------------------|
|----------------------------------------------------|
|
| E  S S  Q    a  E           E    S S           E
|----x-x---------------------------------------------|
|----x-x---------------------------------------------|
|-----------------------------4----------------------|
|--------------4s=6----------------6s4-----------2---|
|----------------------------------------------------|
|--------12\-----------------------------------------|


                                           ~
   +Q    Q   Q.    E    E E  E E    E E  E E   +E   E a  E E H
|--------------------|-----------------------|--------------------|
|-(12)-------------9-|-12-9------------------|--------------------|
|--------------------|------11p9---11------9-|-(9)-11-9h11--------|
|--------------------|------------------11---|--------------------|
|--------------------|-----------------------|--------------------|
|--------------------|-----------------------|--------------------|
|
|            ~~
|   E  E E E Q   E E    Q    E E a  Q    E E   +W
|--------------------|-----------------------|--------------------|
|--------------------|-----------------------|--------------------|
|--------------------|-------------------4-6-|-(6)----------------|
|--(2)-2-4---2---4---|--2----4---4s=6--------|--------------------|
|---0------0-------2-|---------2-------------|--------------------|
|--------------------|-----------------------|--------------------|

  H    Q.       a     +E
|-------------------------|
|---------------9b11==(9)-|
|-------------------------|
|-------------------------|
|-------------------------|
|-------------------------|
|
| H    E  E a E        E
|-------------------------|
|-4-----------------------|
|------6--4---------------|
|-6---------6s4--------2--|
|-2-----------------------|
|-------------------------|

  +Q    E E q  E  a      +E     +Q   E  E E  E E a E
|----------------------------|-----------------------||
|-(9)---9-7------12b14==(12)-|-(12)--9-----------3s5-||
|-----------9----------------|---------11-9----------||
|----------------------------|--------------11-------||
|----------------------------|-----------------------||
|----------------------------|-----------------------||
|
|              PM
| +E  E E E Q  E          E      W
|----------------------------|---7-------------------||
|----------------------------|---7-------------------||
|----------------------------|---9-------------------||
|-(2)---4---2--4-------------|---7-------------------||
|-----0---0------------------|---9-------------------||
|-------------------------7--|---7-------------------||


                   PM
  +Q   +E  S S  E  E E E   E  E E a     +E   q.   E
|------------------------|-3--3-5-5pb7==(5)-------3-|
|-(5)--(5)-3p0---------5-|--------------------------|
|---------------2--0-----|--------------------------|
|------------------------|--------------------------|
|------------------------|--------------------------|
|------------------------|--------------------------|
|
|  Q.      E   +H          Q.            E  +H
|--5---------------------|--------------------------|
|--7-------9---(9)-------|-7-------------9--(9)-----|
|--7-------9---(9)-------|-7-------------9--(9)-----|
|--7-------9---(9)-------|-7-------------9--(9)-----|
|------------------------|--------------------------|
|------------------------|--------------------------|

  E E a     +E  E  E  E Q
|-5-5-5pb7==(5)-3--5----3b3.5----|
|---------------------5----------|
|--------------------------------|
|--------------------------------|
|--------------------------------|
|--------------------------------|
|
| H               +Q.         E
|-0---------------(0)------------|
|-3---------------(3)---------5--|
|-2---------------(2)---------2--|
|-0---------------(0)---------2--|
|-----------------------------0--|
|-3---------------(3)------------|

   E  E E a E +S  S E E E
|-------0-----------------|
|--5--3---3s5-(5)-3p0-----|
|---------------------2p0-|
|-------------------------|
|-------------------------|
|-------------------------|
|
| +W
|-------------------------|
|-(5)---------------------|
|-(2)---------------------|
|-(2)---------------------|
|-(0)---------------------|
|-------------------------|


                                                  ~~
  E   E  a      +Q     +S   S  e  E E    E   E e  E  +Q    E e
|-------------------------------------|------------------------|
|----15-------------------------------|------------------------|
|-------14b16==(14)r==(14)p12---------|----------12-(12)-----9-|
|-----------------------------14-11p9-|-14--14------------/9---|
|-------------------------------------|------------------------|
|-------------------------------------|------------------------|
|
| Q.                E  +H                Q.       E  +H
|-5-----------------------------------|------------------------|
|-7-----------------9--(9)------------|--7--------9--(9)-------|
|-7-----------------9--(9)------------|--7--------9--(9)-------|
|-7-----------------9--(9)------------|--7--------9--(9)-------|
|-------------------7--(7)------------|------------------------|
|-------------------------------------|------------------------|


                                     ~
   S      +S   +E  E E  S  S E     E E
|----------------------10p=7-----------|
|-10b11==(10)r(10)-8---------8b8.5-----|
|--------------------9---------------9-|
|--------------------------------------|
|--------------------------------------|
|--------------------------------------|
|
|  H                   +Q.           E
|--5-------------------(5)-------------|
|--3-------------------(3)-----------5-|
|--2-------------------(2)-----------2-|
|--0-------------------(0)-----------2-|
|------------------------------------0-|
|--3-------------------(3)-------------|


       Gtr I
        ~~      PM
  +Q    Q  E  E E a  E      +E   E  E  E  E  E  q
|-----------------------||--------------------------|
|-----------------------||--------------------------|
|-(9)-------------9h11--||-(11)s13-13s16-16s18-18---|
|----------9-11---9-(9)-||--(9)s11-11s14-14s16-16---|
|------11---------------||--------------------------|
|---------------9-------||--------------------------|
|
| +Q    Q  H                 W
|-----------------------||--------------------------|
|-(5)-------------------||--------------------------|
|-(2)-------------------||--------------------------|
|-(2)-------------------||--------------------------|
|-(0)-------------------||--------------------------|
|-----------------------||--------------------------|

   E  E  E  a  E  E  E  E  E
|----------------------------|
|----------------------------|
|-18s22s16-16s18s16-16s13----|
|-16s19s14-14s16s14-14s11-11-|
|----------------------------|
|----------------------------|

                                                   PM
         |--3--|   |-3--|
   E  E  S  S  S E S  S S E E E   +E  E  E  E E  E Q
|-------------------------------|----------------------|
|-------------------------------|----------------------|
|-13s11-11h13p11---9h11p9---9---|----------------------|
|-----9----------7--------7---6-|-(6)---------9-11-----|
|-------------------------------|-------11-11----------|
|-------------------------------|------------------9---|

  a  Q  E e E E  E E   +Q   E E E a  E  E E   a  E  E E E E a E E E
|--------------------|----------------------|------------------------|
|-----------x--------|----------------------|-5-(5)---------------5/-|
|-9s11s=9---x------9-|-(9)------4-4-(4)-----|------------------------|
|-9s11s=9----------9-|-(9)------4-4h=6--4---|-4h=6--4----------------|
|------------------7-|-(7)--4-7-----------7-|---------7-4-2----------|
|-------------x\---5-|-(5)------------------|---------------2h4-2-0--|


  Gtr II
         ~~~                    ~~                    PM   ~~~~~~~~
  Q      Q    E E  E E   +E  E  Q    +Q   E S  S   e  S  S Q   +Q   +E  S S
|----------------------|-------------------------|---------------------------|
|----------------------|-------------------------|----------------------0h7h=|
|----------------------|-------------------------|---------9---(9)--(9)------|
|--------------------9-|-(9)---11---(11)--9------|---------------------------|
|--------9---11-9-11---|--------------------9h11-|------11-------------------|
|----------------------|-----x-------------------|-9--9----------------------|
|
| Gtr III
| E E a  Q    E E  E E   +Q.      E  +H            Q.        E +H
|----------------------|-------------------------|---------------------------|
|--------------------0-|-(0)---------------------|-7-------------------------|
|-----6h=8----6-4----6-|-(6)------6--(6)---------|-4---------6-(6)-----------|
|-----4-(4)---4-4----4-|-(4)------6--(6)---------|-4---------6-(6)-----------|
|----------------------|-------------------------|-----------4-(4)-----------|
|---7------------------|-------------------------|---------------------------|


                                                ~~~~~~~
   S  S  S S S S S S  S  S S S S S S S    S  S  E  +Q    +E   e E  a      +E
|-----7-12p7-9-------------------------|---------------------------------------|
|--9-----------9p7----7h=9-------------|---------------------------------------|
|------------------9-------9p6---------|-11p=9-11-(11)--(11)------11b13==(11)r=|
|------------------------------9p7-----|---------------------------------------|
|----------------------------------9p7-|---------------------11----------------|
|--------------------------------------|---------------------------------------|
|
|  Q.            E   +H                  +H.                    Q
|-12-----------------------------------|---------------------------------------|
|-12-------------9---(9)---------------|-(9)-----------------------------------|
|-11-------------9---(9)---------------|-(9)-----------------------------------|
|----------------9---(9)---------------|-(9)-----------------------------------|
|--------------------------------------|---------------------------------------|
|--------------------------------------|---------------------------------------|

   +Q   E  a      +E    a       +Q   e  a      +E
|--------------------------------------11b13==(11)r|
|--------------------------------------------------|
|-(11)--9-11b13==(11)r(11)b13==(11)----------------|
|--------------------------------------------------|
|--------------------------------------------------|
|--------------------------------------------------|
|
|   Q.             E            +H
|--------------------------------------------------|
|---0----------------------------------------------|
|---6--------------6------------(6)----------------|
|---4--------------6------------(6)----------------|
|------------------4------------(4)----------------|
|--------------------------------------------------|


             ~
   +E   E  E E +Q   E E    E   E E   E    +E     Q     E
|-(11)------------------|----------------------[11]s=[12]-|
|------12----9-(9)------|----------[12]-([12])------------|
|---------11------------|-----11--------------------------|
|---------------------7s|==9-----9------------------------|
|-----------------------|---------------------------------|
|-----------------------|---------------------------------|
|
|   Q.       E +H          Q.        E    +H
|-----------------------|-11---------0----(0)-------------|
|---7-------------------|-12---------0----(0)-------------|
|---4--------6-(6)------|-11--------11---(11)-------------|
|---4--------6-(6)------|---------------------------------|
|------------4-(4)------|-----------12---(12)-------------|
|-----------------------|---------------------------------|

                                            |-3--|
    E        +S     +S     +Q      +E   E   E E  E
|-[14]b16==([14])r([14])-([14])--([14])------------|
|--------------------------------------------------|
|--------------------------------------------------|
|---------------------------------------------9-11-|
|-----------------------------------------/11------|
|--------------------------------------------------|
|
|  +H.                                      Q
|--(0)---------------------------------------------|
|--(0)---------------------------------------------|
|-(11)---------------------------------------------|
|--------------------------------------------------|
|-(12)---------------------------------------------|
|--------------------------------------------------|

   |-3--|  |--3---|  |---3----|
   E  E E  E  E   E  E      E E  S      S  S  S
|-----------------9-12b12.5-9-----------9-------|
|-------9-12-14---------------9-12b12.5---14-12-|
|-11s13-----------------------------------------|
|-----------------------------------------------|
|-----------------------------------------------|
|-----------------------------------------------|
|
|  Q.           E   +H
|-----------------------------------------------|
|--0--------------------------------------------|
|--6------------6---(6)-------------------------|
|--4------------6---(6)-------------------------|
|---------------4---(4)-------------------------|
|-----------------------------------------------|

              |-----5-----|
  S   S  S S  S S  S   S  S  Q   E  E
|--------------------------------------|
|-9-----12-9---------------------------|
|----11------11-9------------9---------|
|-----------------11p==9-----------[9]-|
|------------------------11------------|
|--------------------------------------|
|
| Q.                 E      +H
|--------------------------------------|
|-7------------------------------------|
|-4------------------6------(6)--------|
|-4------------------6------(6)--------|
|--------------------4------(4)--------|
|--------------------------------------|

    E    E    E    a         a     +E     E    E  E   E
|------[11]-[12]-[11]b12==([11])r([11])-[12]-[14]---[17]-|
|--------------------------------------------------------|
|-[11]---------------------------------------------------|
|--------------------------------------------------------|
|--------------------------------------------------------|
|--------------------------------------------------------|
|
|   Q.                              E    +H
|---0-------------------------------0----(0)-------------|
|---0-------------------------------0----(0)-------------|
|---9------------------------------11---(11)-------------|
|---9----------------------------------------------------|
|----------------------------------12---(12)-------------|
|--------------------------------------------------------|


    ~~~~
    Q.    E  E  E  E  E
|-[19]------------------|
|-----------------12-14-|
|-----------11-13-------|
|-----------------------|
|-----------------------|
|-----------------------|
|
|  +Q.    E  Q     E  E
|--(0)------------------|
|--(0)------12----------|
|-(11)------11----11----|
|------------------9----|
|-(12)------------------|
|--------11-----------9-|


                                   ~
   a      +E   +E   E  E  S  S E E E   +Q    E E E E E e
|------------------------------------|-------------------|
|-16b17==(16)r(16)-14s12-14p12s9s7s5-|-(5)-----5s7-9s7p5-|
|------------------------------------|-------6-----------|
|------------------------------------|-------------------|
|------------------------------------|-------------------|
|------------------------------------|-------------------|
|
|                                          PM          PM
|          H              Q.       E   +E  E E E Q   E E
|----------0-------------------------|-------------------|
|----------9--------------9----------|-------------------|
|----------6--------------8----------|-----------6---6---|
|----------6--------------6----------|-----------7---7---|
|----------------------------------7-|-(7)-----7-7---7---|
|-------------------------7--------5-|-(5)-5-5---------0-|


                               Gtr I
                                            ~           PM
  a E E E E E  a E E E   +E  e  E  E E  E E E   +Q    E E a  E E a  E E
|----------------------|----------------------|-------------------------|
|----------------------|----------------------|-------------------------|
|-4s6s4----------------|--------------------9-|-(9)---------------------|
|-------6s4p2------2-2-|-(2)---------9-11-----|------11--------9--------|
|--------------2h4-----|-------11-11----------|-----------9s11---9s11-7-|
|--------------------0-|-(0)--------------9---|---------9---------------|
|
|   H       Q.       E   +E  E  Q    H           W
|---0------------------|----------------------|-------------------------|
|---0-------5--------5-|-(5)------------------|-------------------------|
|---1-------2--------4-|-(4)------------------|-------------------------|
|---2-------2--------2-|-(2)------------------|-------------------------|
|----------------------|----------------------|-------------------------|
|----------------------|----------------------|-------------------------|


                                           ~~
  +Q   E E E E E a E   Q  E E Q.   E   Q   Q  E  E E E
|--------------------|-0-------------|-----------------|
|--------------------|-0------5----5-|-----------------|
|--------------------|----x---2----4-|-----------------|
|----------2-4---4s6-|----x---2----2-|--------9-11-----|
|-(7)--2-4-----------|------2--------|----11-----------|
|--------------0-----|---------------|-------------9-x-|

  a  Q  E e  E E e E   +Q   E E E E E E   a  E  E E E E a E E e
|--------------------|------------------|-0-(0)-----------------|
|------------------9-|-(9)--------------|-----------------------|
|-9s11s=9----------9-|-(9)------4-------|-----------------------|
|-9s11s=9---11-9---9-|-(9)------4h6-4---|-4h=6--4---------------|
|-----------11-9---7-|-(7)--4-7-------7-|---------7-4-2---------|
|------------------5-|-(5)--------------|---------------2h4-2-0-|


                                                      PM
  Q   E  E E  E e a  E    +Q    e  E E E E  E    +E   E  E E  E  e  E  a  E
|----------------------|----------------------|------------------------------|
|----------------------|-----------------9-10-|-(10)---------10-12-10-12s14--|
|-----------------9s11-|-(11)--13------9------|------------9----------11s13s=|
|----------9-11---9s11-|-(11)--------9-----11-|-(11)----11-------------------|
|----11-11-------------|----------------------|------12----------------------|
|----------------------|----------12----------|------------------------------|

    E   E  S  S  E E E a  E E
|-----------------------------|
|-(14)s12---------------------|
|--12s=11-13p11-------------9-|
|---------------14-x----------|
|--------------------7-9s11---|
|-----------------------------|

  +E  E  E  E E  E E  E   Q   S  S  e E  E E  a  E
|-----------------------|-9--11h12p11-9------------|
|-----------------------|-9--12-------9-12---------|
|-(9)-9-----------------|---------------11---11s13-|
|-------------9-11-9-11-|---------------------9s11-|
|-------11-11-----------|--------------------------|
|-----------------------|--------------------------|


                        ~
   +E       +S   +S   E E +Q   E E   Q  E e E e E E
|----------------------------------|-4--4---5---2-4-|
|----------------------------------|-5--5-------4-5-|
|-(13)b14==(13)r(13)-11-9-(9)------|-4------6---4-4-|
|-(11)----------------9-7-(7)------|--------------2-|
|--------------------------------7-|--------------2-|
|----------------------------------|--------------0-|

  +W           +W           +Q.    E H
|-(4)--------|-(4)--------|-(4)---!x------*|
|-(5)--------|-(5)--------|-(5)---!x------*|
|-(4)--------|-(4)--------|-(4)---!x------*|
|-(2)--------|-(2)--------|-(2)---!x------*|
|-(2)--------|-(2)--------|-(2)---!x------*|
|-(0)--------|-(0)--------|-(0)---!x------*|
Compositor não encontrado.
Colaboración y revisión:
  • rodolfo souza
224 vistas
    • ½ Tono
    • A
    • Bb
    • B
    • C
    • Db
    • D
    • Eb
    • E
    • F
    • F#
    • G
    • Ab
  • Agregar a la lista

    0 comentarios

    Ver todos los comentarios

    ¿Lograste tocar?

    0 Tocaron 0 Aún no

    ¡Graba un video tocando SRV y envíanoslo!

    00:00 / 00:00
    Outros vídeos desta música
    Repetir Calidad Automático
    Outros vídeos desta música
    00:00 / 00:00
    Automático
    OK