Cifra Club

The First Nowell

Eric Johnson

Cifrado: Principal (guitarra y guitarra eléctrica)
tono: E
     Q    E  E  E  E     H.              Q    Q    Q       Q    E  E  E   E   
E||-------------------|---------------|-------9----5----|--5----x------------|
B||----------7--------|--5------------|-------7----3----|--5----x------------|
G||--7----------------|--7------------|-----------------|----------------11--|
D||--7----------------|--7------------|-----------------|-------------9------|
A||--5-------------0--|--0------------|-----------------|----------9---------|
D||--0-------5--------|---------------|-------9----5----|--7----x------------|


   Q    E   E  E   E  E  E  E  E     E  E  E  E  E  S  S Q     
--10--------9------------7-----0--|---------------------------|
------------------10--------7-----|--3-----2--0----------3----|
--11--------9---------7-----------|-----------------2p-0-2----|
---9------------------------7-----|-----4--------0-------4----|
-----------10------9--------5-----|--2------------------------|
----------------------------------|-----------5----------0----|

  W                    Q.     E  Q    E  E       E  E  E  E  E  E   
--------------------|-----------------2--0--||------------0--2--3--|
--3h----------------|--2--------------------||---3-----------3-----|
--2-----------------|--L--------------2-----||*--------2-----------|
--2-----------------|--L--------------------||*-----4--------------|
--0-----------------|--L------L--0----------||------------4--------|
--------------------|-----------------------||---0-----------2-----|

  E  E  E  E  E  E      E   E     E  E  Q       Q    E  E  E  E   
--5-----------7--9--|--10------10g9-----7----|--5----------7--9--|
--------------------|------10----------------|--7----------------|
--------------7-----|-------------------7----|-------------7-----|
-----------5--L-----|-------------------5----|--0-------5--L-----|
--0--2--------------|---9--------------------|-------------------|
--------------------|------------------------|-------------------|

   E   E  E  E  Q       Q    Q    Q        E   E  E  E  Q     
--10------9-----7----|--5----7----9----|--10------------3----|
---------------------|--7---------8----|----------------5----|
------11-----7-------|-------7----9----|---7-----------------|
---9------7-----5----|-------5---------|----------7----------|
---------------------|--5---------7----|---9--10-----0-------|
---------------------|-----------------|---------------------|

  Q    E  E  E  E       Q    E  E  S  S E      E   Q    E  E  E   
--2----------2--0---||--2------------------|--(5)-------0--2--3--|
--3-----------------||--3----------2h-7-5--|---3-----------3-----|
--2----------2-----*||--2----------2-------|---------------------|
--0----------------*||--0-------7--0-------|---------------------|
--0-------0--L------||--0-------0----------|---------------2-----|
--0-----------------||--0------------------|---0---0-------------|

  E  E  E  E   Q       Q    E  E  E  E     E   E  E  E  E  E   
--5-----------10----|--7----x--------0--|--2p--0--------5-----|
---------------7----|--8----x--2--0--2--|--3------3-----5-----|
--6-----6-----------|--7----x--2--0--2--|--2------------------|
--4--4-----0--------|--0----x-----------|--0------------------|
--------------------|----------------0--|---------------4-----|
--------------------|-------------------|---------------------|

   E  E  E  E  E  E     E  E  E  E  E  E     E  E  E  S  S   E  E   
--10-----9-----7-----|--5-----7-----------|------------------------|
---------------------|--7-----7-----2-----|--3-----7-------6g5-----|
------7-----7-----7--|-----7-----7-----0--|-----0--7------------7--|
---9-----------5-----|--------------------|--------7--4S-5---------|
---------9-----------|--------------------|--------0------------0--|
---------------------|--0-----------2-----|--4--5------------------|

  Q    E  E  E   E     H        E  E      H        Q     
--------------------|------------------|----------------|
--------------------|------------------|----------------|
--7-------------11--|------------------|----------------|
--7----------9------|--4--------L--5h--|--4-------------|
--5-------9---------|------------------|----------------|
--0-----------------|------------------|----------------|

    Q    E  E  E  E  E  E     Q    S  S  S  S    Q.     E  E  E   
---------------------------|------------------|------------------|
---------------------------|------------------|------------------|
--6g7----------------4-----|--7----6h-7p-6p-4-|------------0-----|
---------4--5--L--7--------|------------------|--7------2-----4--|
------------------------7--|-------0-----2----|------------------|
---------------------------|------------------|------------------|

  Q.     E  E  E     Q    Q       E    E     Q    Q    E  E   
------------------|-----------------------|------------------|
------------------|--3--------------------|------------------|
--2------0--4--2--|-------4br----(4)p--2--|--2---------2--4--|
------------------|-----------------------|------------------|
------------------|-----------------------|------------------|
------------------|-----------------------|------------------|

   Q    E   E  E   S   S      Q    E   E  E   S  S     Q    E  E  E  S  S  
--------------------------|------------------------|----------------------|
--15--------------10h-12h-|--14--------------10p-0-|--12-------------7h-8-|
-----------12-------------|-----------11-----------|-----------9----------|
--------------------------|------------------------|----------------------|
--------------------------|------------------------|----------------------|
--------------------------|------------------------|----------------------|


                          PM                   PM            
   Q    Q      Q       E  E  Q    Q        E   E  Q    Q     
--------------------|------------------|--------------------|
--10----------------|------------------|---7----------------|
--------6br----L----|--4--7------------|--(4)---------------|
--------------------|--7---------------|-------9------------|
--------------------|------------------|--------------------|
--------------------|------------------|--------------------|


                                                               PM  
  Q    E  E  E   E        E      E  H            E   E  Q.     E   
----------------------|----------------------|--------------------|
-------------5b--5pb--|--(5)pbr--------------|--------------------|
----------------------|----------4--L--------|--(4)---------------|
----------4-----------|----------------------|---7---9--L------9--|
----------------------|----------------------|--------------------|
----------------------|----------------------|--------------------|

       PM                                                               
                |---3--|                                                
   E   E  E  E  E  E   E     Q    Q    Q            E    E  Q    E  E   
--------------------------|-------5-----------|------------------------|
---7----------------------|--3---------5br----|--5g(5)p--3--3----------|
--(4)-----------7---------|-------------------|------------------4--2--|
-------9-----------7p--5--|-------------------|------------------------|
-------------5------------|-------------------|------------------------|
--------------------------|-------------------|------------------------|

  Q    Q       E    E     Q     E   E  E  S  S     Q.     E  E  E   
-----------------------|------------------------|------------------|
--3----5br----(5)p--3--|--3----(3)--------------|------------------|
-----------------------|------------------------|---------------0--|
-----------------------|---------------2--3p-2h-|--0------2--4-----|
-----------------------|--------5S--0-----------|------------------|
-----------------------|------------------------|------------------|

  Q.     E  E  E     Q    Q    E   E      Q.     E  E  E   
------------------|------------5S--7s--|--5---------------|
---------------2--|--3----5----5S--7s--|--5---------------|
--2------2--4-----|--4----6------------|---------------7--|
------------------|--------------------|------------9-----|
------------------|--------------------|---------9--------|
------------------|--------------------|------------------|

   |--3-|         |--3-|        |--3-|                           
   S  S S S  T  T S  S S S T  T S  S S S T  T    Q    Q    Q     
----------------------------------------------|-------3---------|
----------------------------------------------|------------5----|
--11p-7-----11p-7-9p-6-----9p-6-7p-4-----7p-4-|-------4---------|
--------9--------------7-------------5--------|--7---------5----|
----------9--------------7-------------5------|-----------------|
----------------------------------------------|-----------------|

  Q.     E    E   E     Q.     E  Q       E  E  E  E  E  E   
---------------------|-----------------|--------------2--3--|
--3------------------|-----------------|--3-----------3-----|
---------------------|-----------------|--2-----2--0--------|
---------4--4g2p--0--|--0--------------|--4--0--------------|
---------------------|-----------------|--------------2-----|
---------------------|-----------------|--------------------|

  E  E  E  E  Q       Q    E  E  E  E     E  E  E  E  E  E   
--5--------5-------|-------------------|--------------5-----|
-------------------|--3----3--2--3--5--|--7-----------5-----|
--6-----6----------|--4----4--2--4--6--|--------7-----------|
--4--4-------------|--5----------------|-----7--------------|
-------------------|-------------------|--5-----------4-----|
-------------------|-------------------|--------------------|

   Q     Q     Q        Q     Q    Q       E  E  E  S  S E  E     H.            
--10-----9----------|--------------9----|----------------------|---------------|
--------10----12----|--10----12----8----|----------------3-----|--3------------|
--11----------------|--11----11----9----|----------------------|---------------|
---9----------12----|--12----12---------|-----------4h-5----5--|--4------------|
---------9----10----|-------------------|--------0-------------|---------------|
--------------------|-------------------|--4--5----------------|---------------|

  E  E  E    E  E  E     Q    E  S S S   S  S  S   
----------------------|--------------------14-17S-|
----------------------|----------7---8S-15--------|
----------------------|------------7--------------|
--------7----7--L-----|---------------------------|
-----4--5--5g7--L-----|---------------------------|
-------------------0--|---------------------------|

   S S  E  S S S  S S  S S  S    S S S S  S S S S  S  S  S  S  
--12-9---------7-10-9p-5------|--------7-10-9-7---------------|
-------10----8----------------|------5------------------------|
-----------9-------------7p-4-|----7------------7----12-11----|
------------------------------|--5----------------12-------12-|
------------------------------|-------------------------------|
------------------------------|-------------------------------|

   S   S  S  S  S  S  S S  S  S S  S     H.              E  E  Q    Q     
--14p-10-------12p-9-----------------|----------------|------------------|
-------------------------------------|----------------|--7---------------|
---------12p-9-----------------------|----------------|------------------|
---------------------12-9-11---------|----------------|-----9------------|
-----------------------------12-7----|----------------|------------------|
----------------------------------11-|--12------------|------------------|

  Q    E  E  E   E        E   E  H         
----------------------|-------------------|
-------------5b--5pb--|--(5)--------------|
----------------------|-------4--L--------|
----------4-----------|-------------------|
----------------------|-------------------|
----------------------|-------------------|

  S  S  S  S S  S  S  S  S S  S  S S  S S   S    Q    Q    H         
----------------------------------------5h-10-|--7------------------|
-----------------------------------5h-7-------|---------------------|
--4------------------------4h-6h-7------------|---------------------|
-------------4h-7p-4h-5h-7--------------------|---------------------|
--7p-4h-5h-7----------------------------------|---------------------|
----------------------------------------------|---------------------|

  H        Q    E   E     Q.     E  E  E     Q    Q    E  E   
-----------------------|------------------|------------------|
-----------------------|------------------|------------------|
-----------------------|------------0-----|--2---------4--2--|
-----------------------|--0------2-----4--|------------------|
----------------0h--2--|------------------|------------------|
-----------------------|------------------|------------------|

  Q    Q         E    E     Q    E  E  E  E     Q    Q    Q       
-------------------------|-------------------|-------5-----------|
--3----------------------|-------------------|--3---------5br----|
-------4br----4g(4)p--2--|--2-------0--2--4--|-------------------|
-------------------------|-------------------|-------------------|
-------------------------|-------------------|-------------------|
-------------------------|-------------------|-------------------|

     E    E  Q    E  E     E  E  Q         E   E     H        Q     
------------------------|-------------------------|----------------|
--5g(5)p--3--3----------|--3-----5br----5g(5)--3--|--3-------------|
------------------4--2--|-----4-------------------|----------------|
------------------------|-------------------------|----------------|
------------------------|-------------------------|----------------|
------------------------|-------------------------|----------------|

  |--3--|  |---3---|  |----3---|      |---3--|   |---3---|   |---3---|   
  E  E  E  E   E   E  E   E    E      E  E   E   E   E   E   E   E   E   
----------------------------------|--14--9------------------------------|
----------------------7h--8h--10--|---------10--------------------------|
--------7--9p--6h--7--------------|-------------11p--9------------------|
-----7----------------------------|---------------------11--------------|
--9-------------------------------|-------------------------12p--9------|
----------------------------------|---------------------------------11--|

   |----3---|  |---3---|  |----3---|      |---3---|   |---3--|   |---3---|   
   E    E   E  E   E   E  E   E    E      E   E   E   E   E  E   E   E   E   
---------------------------------------|------------------------------------|
---------------------------------------|------------------------------------|
---------------------------------------|---------------------9----------11--|
--12p--11--12--9--12------9------------|---------12------11---------11------|
----------------------12-----12p--10h--|--9--12------10---------12----------|
---------------------------------------|------------------------------------|

                                            PM  PM    PM PM    PM PM  
  |---3---|   |---3---|   |---3---|     |---3---|  |--3--|  |--3--|   
  E   E   E   E   E   E   E   E   E     E   E   E  E  E  E  E  E  E   
-------------------------------------|-------------------------------|
-------------------------------------|-------------------------------|
--9--11------11------11----------11--|--9----------7--------6--------|
---------12------11----------11------|-----11---------9--------7-----|
-------------------------12----------|---------10--------9--------7--|
-------------------------------------|-------------------------------|

  |--3--|  |--3--|  |---3--|                             
  E  E  E  E  E  E  E  E   E     H        Q              
------------------------------|----------------|-------||
------------------------------|----------------|-------||
--7-----7-----7---------------|----------------|-------||
-----7-----5-----4------------|----------------|-------||
--------------------7--5p--4--|--5-------------|-------||
------------------------------|----------------|-------||

Duration Legend
---------------
W - whole
H - half
Q - quarter
E|- 8th
S - 16th
T - 32nd
X - 64th
. - note dotted
|-n-|  - n-tuplets

Tablature Legend
----------------
L - tied note
x - dead note
g - grace note
(n) - ghost note
> - accentuded note
NH - natural harmonic
AH - artificial harmonic
TH - tapped harmonic
SH - semi harmonic
PH - pitch harmonic
h - hammer on
p - pull off
b - bend
br - bendRelease
pb - preBend
pbr - preBendRelease
brb - bendReleaseBend
\n/ - tremolo bar dip
\n - tremolo bar dive
-/n - tremolo bar Release up
/n\ - tremolo bar inverted dip
/n - tremolo bar return
-\n - tremolo bar Release down
S - shift slide
s - legato slide
/ -  slide into from below or out of upwards
\ -  slide into from above or out of downwards
~ - vibrato
W - wide vibrato
tr - trill
TP - tremolo picking
T - tapping
S - slap
P - pop
< - fade in
^ - brush up
v - brush down
Composición de Eric Johnson
Colaboración y revisión:
  • Emanuel Botelho
43 vistas
    • ½ Tono
    • A
    • Bb
    • B
    • C
    • Db
    • D
    • Eb
    • E
    • F
    • F#
    • G
    • Ab
  • Agregar a la lista

    0 comentarios

    Ver todos los comentarios

    ¿Lograste tocar?

    0 Tocaron 0 Aún no

    ¡Graba un video tocando The First Nowell y envíanoslo!

    00:00 / 00:00
    Outros vídeos desta música
    Repetir Calidad Automático
    Outros vídeos desta música
    00:00 / 00:00
    Automático
    OK