Cifra Club

Otra como tu

Eros Ramazzotti

Cifrado: Versão 2 (guitarra y guitarra eléctrica)
tono: Db
INTRO:

PART 1. 00:00
E|--9-8-----6-----/--9-9-9-9--11--------|
B|--------9-------/----------------9----|
G|----------------/------------------10-|
D|----------------/---------------------|
A|----------------/---------------------|
E|----------------/---------------------|

E|---9-8-------9-9-/--9-8------------|
B|--------9-7------/--------9-6------|
G|-----------------/-----------------|
D|-----------------/-----------------|
A|-----------------/-----------------|
E|-----------------/-----------------|

2:38

E|--6-9---6---/------------/--6h9-6---6------|
B|------9---6-/--6-9---6---/--------9---9-6--|
G|------------/------8---6-/-----------------|
D|------------/------------/-----------------|
A|------------/------------/-----------------|
E|------------/------------/-----------------|

2:58

E|---9-8-----|
B|-------9-6-|
G|-----------|

Solo:

3:39


E|-----12-12h14----12-10-12-14-----|
B|--11-------------------------12--|
G|---------------------------------|

3:44

E|------10-12--12s14-15-14-17--------|
B|-10-12-----------------------15-16-|
G|-----------------------------------|


3:48 (la parte antes de los / es mas rapida)


E|--12-10-14-10----------/------------|
B|--------------14-12-10-/---10-------|
G|-----------------------/11----------|

3:50                   3:55


E|---------------------/----10-------------10-9----------|
B|----------11-------9-/-12----12-10----12------10----12-|
G|-8h10-8-7----7-------/-------------11------------11----|
D|----------------10---/---------------------------------|
Composición de Adelio Cogliati / Eros Ramazzotti / Piero Cassano
12 vistas
    • ½ Tono
    • A
    • Bb
    • B
    • C
    • Db
    • D
    • Eb
    • E
    • F
    • F#
    • G
    • Ab
  • Agregar a la lista

    0 comentarios

    Ver todos los comentarios

    ¿Lograste tocar?

    0 Tocaron 0 Aún no

    ¡Graba un video tocando Otra como tu y envíanoslo!

    00:00 / 00:00
    Outros vídeos desta música
    Repetir Calidad Automático
    Outros vídeos desta música
    00:00 / 00:00
    Automático
    OK