Cifra Club

Terra Promessa

Eros Ramazzotti

Cifrado: Principal (guitarra y guitarra eléctrica)
Selo Cifra Club: esta cifra foi revisada para atender aos critérios oficiais da nossa Equipe de Qualidade.
tono: C
(intro) Am  C  G  Am

E|-------------------------------------------------------------------------------------------
B|-------------------------------------------------------------------------------------------
G|-------------------------------------------------------------------------------------------
D|------------6----------6---------6--------6------------------------------------------------
A|---6--------------6--------6----------6----------------------------------------------------
E|-------------------------------------------------------------------------------------------

E|-------------------------------------------------------------------------------------------
B|-------------------------------------------------------------------------------------------
G|-------------------------------------------------------------------------------------------
D|-----------7----------7---------7--------7-------------------------------------------------
A|---7------------7-------7----------7-------------------------------------------------------
E|-------------------------------------------------------------------------------------------

E|-------------------------------------------------------------------------------------------
B|-------------------------------------------------------------------------------------------
G|---------------------------------------------------------------------------------5/7-------
D|------------4----------4---------4--------4------------------------------------------------
A|---4--------------4-------4----------4-----------------------------------------------------
E|-------------------------------------------------------------------------------------------

E|-------------------------------------------------------------------------------------------
B|-------------------------------------------------------------------------------------------
G|-------------------------------------------------------------------------------------------
D|------------6----------6---------6--------6------------------------------------------------
A|---6--------------6--------6----------6----------------------------------------------------
E|-------------------------------------------------------------------------------------------

E|-------------------------------------------------------------------------------------------
B|-------------------------------------------------------------------------------------------
G|-------------------------------------------------------------------------------------------
D|-----------7----------7---------7--------7-------------------------------------------------
A|---7------------7-------7----------7-------------------------------------------------------
E|-------------------------------------------------------------------------------------------

E|-------------------------------------------------------------------------------------------
B|-----------------------------------------------------------------9-------------------------
G|---------------------------------------------------------------------10--------------------
D|------------4----------4---------4--------4----------------------------11------------------
A|---4--------------4-------4----------4-----------------------------------------------------
E|-------------------------------------------------------------------------------------------

Am                         C
Siamo  ragazzi  di  oggi , pensiamo  sempre all' America
G                               Am
Guardiamo  lontano , troppo  lontano ...
                                           C
Viaggiare  e'  la  nostra  passione , incontrare nuova gente
G                            Am
Provare  nuove  emozioni , e stare  amici  di  tutti .

 C       G    Am     C      G      F        E
 Da  cn  me ,  de  cn  mon  (  2  vezes  )
 Am                          C
 Siamo  ragazzi  di  oggi , anime nella  cittá
 G                            Am
 Dentro  i  cinema  vuoti , seduti  in qualche  bar!
                           C
E  camminiamo  da  soli , nella  notte  più  scura

G                        Am
Anche   se  il  domani , ci  fa  um  po'  paura .
C               G        Am    C          G          F      E
Finche'  qualcosa  cambiera' , finche' nessuno  ci  dara',  ah
     F      C               Em       G
Una  terra  promessa , un  mondo  diverso    (*)
        F                       Am   G
Dove  crescere  i  nostri  pensieri                       (*)
           F       C      Em              G
Noi  non  ci  fermeremo , non  ci  stancheremo
         F                E
Di  cercare  il  nostro  cammino!!
Am                             C
Siamo  ragazzi  di  oggi , zingari  di  professione
G                                  Am
Con  i  giorni  davanti  e  in  mente  un'illusione
Am                        C
Noi  siamo  fatti  così , guardiamo  sempre  al  futuro
G                        Am
E  così  immaginiamo un  mondo  meno  duro.
Finche' ...
Una  terra  promessa  
          F        C      Em              G
Noi  non  ci  fermeremo , non  ci  stancheremo
F                     E
Ed  insieme  noi  troveremo !!!!
Una  terra  promessa ,  un  mondo  diverso ...
Otros videos de esta canción
    5.187 exhibiciones
      • ½ Tono
      • A
      • Bb
      • B
      • C
      • Db
      • D
      • Eb
      • E
      • F
      • F#
      • G
      • Ab
    • Agregar a la lista

    Afinación de cifrado

    Afinador online

      OK