Cifra Club

Jugaste Y Sufri (Part. Dannylux)

Eslabon Armado

Cifrado: Principal (guitarra y guitarra eléctrica)
tono: Em
[Primeira Parte] 

C7M
Ya no me enojo contigo
 Am7       D7(9) G7M
Solo observo y pienso
    
Me decepcionó

C7M
Y me alejo más de ti
 Am7          D7(9)        G
Porque yo ya no quiero sufrir
              G7M
Quiero ser feliz

 C7M
Tu amor es veneno y más
   Am7            D7(9)     G
Y yo siento un dolor, en mi alma
          G7M
Pero con calma

C7M
Abro mi teléfono
Am7           D7(9)       G
Y miro que andabas con otro
          G7M
Cómo me siento

[Segunda Parte] 

 C7M 
Te llamo para confirmar
 Am7          D7(9)       G7M
Pero tú no quieres contestar

Tú me matas
 C7M
Yo no sé cuál fue la razón
 Am7             D7(9)        G7M
Si yo te estaba dando todo mi amor

Estoy destrozado

             C7M
Tenía fe en ti
                   Am7  C7M  Bm7
Pero jugaste y sufrí
             Em7       
En verdad estoy mal
                         G7M
Aquí estoy yo en mi soledad

                C7M
Yo nunca te mentí
                         Am7  Bbm7 Bm7
Tú eras todo mi mundo entero
                Em7
Y es que la verdad
            G7M
Tú me dejaste en cero

 Am7      Bm7      Em7
Todo mi amor y mi ser
 Am7         Bm7            Em7
Yo te entregué todo, ¿por qué?

[Solo] C7M  Am7  C7M  Bm7  Em7 
       C7M  Am7  D7(9)  G7M

E|------------------------------------------|
B|-5-7-8-10-10/12--10----------------10/12--|
G|-4----------------------------------------|
D|-5----------------------------------------|
A|------------------------------------------|
E|------------------------------------------|

E|------------------------------------------|
B|-13-12-10---------------12h13-12~---13-12-|
G|----------12-9/11-9-----------------------|
D|------------------------------------------|
A|-------------7/9--7-----------------------|
E|------------------------------------------|

E|------------------------------------------|
B|-10-12-10-------------------13------------|
G|----------12-11----9/11-11-----12-11------|
D|-------------------------------------12-9-|
A|-------------------7/9--9-----------------|
E|------------------------------------------|

E|------7------5-------3----------7-----8---|
B|------------------------------------------|
G|-5/7----7\5-----5\4---------\7----7/9-----|
D|------------------------------------------|
A|------------------------------------------|
E|------------------------------------------|

E|-12h8-7-----------------------------------|
B|-----------11-11-11----8--8/10----8--8/10-|
G|-----------12-12-12----9--9/11----9--9/11-|
D|------------------------------------------|
A|------------------------------------------|
E|------------------------------------------|

E|--------------------------------------3~--|
B|-8--8/10---10-10-/12----10---8------------|
G|-9--9/11---11-11-/12----11---9---2/4------|
D|------------------------------------------|
A|------------------------------------------|
E|------------------------------------------|

[Terceira Parte] 

 C7M                   
Mi corazón ya no está igual
Am7          D7(9)    G7M
Una herida que sí es fatal

No volveré a amar

  C7M
Lloro cuando hay lluvia
 Am7              D7(9)           G7M
Porque cuando lo hago nadie me escucha

Me ahogo en mis lágrimas

                C7M
No me siento mejor
                   Am7       Bbm7  Bm7
Pero se acostumbra el cuerpo
                   Em7                 G7M
Con un bote o con dos, con eso te olvido

                   C7M
Y ahora te digo adiós
                      Am7  Cm7  Bm7
Gasté mi tiempo contigo
                Em7
Yo miro un futuro
                      G7M
Pero no estamos tú y yo

 Am7      Bm7   Em7    
Todo mi amor y mi ser
 Am7         Cm7  Bm7    Em7
Yo te entregué   todo, ¿por qué?
00:00 / 00:00
Otros videos de esta canción
Repetir
Otros videos de esta canción
Composición de Daniel Balderrama / Pedro Tovar Jr.
Colaboración y revisión:
  • Getúlio Vasconcelos
305 vistas
    • ½ Tono
    • Am
    • Bbm
    • Bm
    • Cm
    • C#m
    • Dm
    • Ebm
    • Em
    • Fm
    • F#m
    • Gm
    • G#m
  • Agregar a la lista

    0 comentarios

    Ver todos los comentarios

    ¿Lograste tocar?

    0 Tocaron 0 Aún no

    ¡Graba un video tocando Jugaste Y Sufri (Part. Dannylux) y envíanoslo!

    00:00 / 00:00
    OK