Cifra Club

Mi vida cambió

Esperanza de Vida

Cifrado: Principal (guitarra y guitarra eléctrica)
Selo Cifra Club: esta cifra foi revisada para atender aos critérios oficiais da nossa Equipe de Qualidade.
tono: Em
E|-------------------------------------------------------------------------------|

Tonalidad:  G


Intro (x2):
   Em               C             D                Bm
E|---------------------------------------------------------------|
B|--12--12--12--12---8--8--8--8----10--10--10--10----7--7--7--7--|
G|-9---9---9---9----5--5--5--5----7---7---7---7-----4--4--4--4---|




Verso:
Em            C                D                   Bm
Mi vida cambió, mi corazón llenó, ahora mi confianza
                Em
Y mi fe está en Él.
                  C                  D                Bm
Su sangre me limpió, su Amor me perdonó, ahora anunciaré de
               C
Su Gloria y su Poder.


Pre-Coro:
              D                          C                 D
Quiero agradecerte, por  tu obra en la Cruz, darte hoy mi vida,
                       C              Am
Pues no hay nadie como Tú, gritar al mundo que eres
      G/B              D
Mi canción, mi único Dios



Coro:
C   G     D    Em             C     G    D         Em
Jesús mi Dios, eres mi pasión, Señor Salvador, te doy todo
        C   G      D      Em           Am               C
Mi amor, a Tí cantaré, por la eternidad, Tú nombre se oirá



Verso:
  Em                  C                 D                  Bm
B|----12---12---12---12-----8---8---8---8----10--10--10--10---|
G|-9----9----9----9--------5---5---5---5----7---7---7---7-----|
         Mi vida cambió, mi corazón llenó, ahora mi confianza |
                  Em                                          |
B|---7---7---7---7--------------------------------------------|
G|-4---4---4---4----------------------------------------------|
  Y mi fe está en Él.                                         |
                   C                   D                Bm    |
B|---12--12--12--12-------8---8---8---8----10--10--10--10-----|
G|-9---9---9---9--------5---5---5---5----7---7---7---7--------|
  Su sangre me limpió, su Amor me perdonó, ahora anunciaré de |
                   C                                          |
B|---7---7---7---7--------------------------------------------|
G|-4---4---4---4----------------------------------------------|
  Su Gloria y su Poder.




Pre-Coro:
              D                          C                 D
Quiero agradecerte, por  tu obra en la Cruz, darte hoy mi vida,
                       C              Am
Pues no hay nadie como Tú, gritar al mundo que eres
      G/B              D
Mi canción, mi único Dios



Coro:
C   G     D    Em             C     G    D         Em
Jesús mi Dios, eres mi pasión, Señor Salvador, te doy todo
        C   G      D      Em           Am               C
Mi amor, a Tí cantaré, por la eternidad, Tú nombre se oirá



Coro:
C   G     D    Em             C     G    D         Em
Jesús mi Dios, eres mi pasión, Señor Salvador, te doy todo
        C   G      D      Em           Am               C
Mi amor, a Tí cantaré, por la eternidad, Tú nombre se oirá


                                                                   b=bending
                                                                   s=slide
Solo:
                       C    G          D          Em         C
E|-------------------------------------------------------------------------|
B|---------------8-10-10b12-10-8-10-12-10----------------------------------|
G|-----------7-9------------------------------------9-11-12------11-12-----|
D|----7-9-10--------------------------------------9---------12--------10---|
A|-10----------------------------------------------------------------------|
E|-------------------------------------------------------------------------|
 |                                                                         |
 |                                                                         |
 |     G           D      Em         C            G         D         Em   |
E|------------------------------------------------15--------15--------15---|
B|-------------------------------------------------------------------------|
G|-11-12------------------------------------12-14-----12-14-----12-14------|
D|-----------------------------------10s12---------------------------------|
A|-------14--12-10-12--10s14-----------------------------------------------|
E|-------------------------------------------------------------------------|
 |                                                                         |
 |                                                                         |
 |                                       C                                 |
E|-------------------------------------------------------------------------|
B|-------------------------------------------------------------------------|
G|-12-14-19--12-14-19--12-14-19--12-14-19-12-14-19-12-14-19-12-14-19--21---|
D|-------------------------------------------------------------------------|
A|-------------------------------------------------------------------------|
E|-------------------------------------------------------------------------|
 ||................................TAPPING................................||
 |                                                                         |
 |                                                                         |
 |               Em                               Am                       |
E|----------------15b17--15-12---------------------------------------------|
B|----------------------------15-12----------------------------------------|
G|---------------------------------14-12-----------------------------------|
D|--------------------------------------14-12------------------------------|
A|-------------------------------------------14-12-------------------------|
E|------------------------------------------------15-----------------------|
 |                                                                         |
 |                        C                                                |
E|-------15-17-17b19---15-17b19--------------------------------------------|
B|-12s15-------------------------------------------------------------------|
G|-------------------------------------------------------------------------|
D|-------------------------------------------------------------------------|
A|-------------------------------------------------------------------------|
E|-------------------------------------------------------------------------|



Coro:
C   G     D    Em             C     G    D         Em
Jesús mi Dios, eres mi pasión, Señor Salvador, te doy todo
        C   G      D      Em           Am               C
Mi amor, a Tí cantaré, por la eternidad, Tú nombre se oirá


Coro:
C   G     D    Em             C     G    D         Em
Jesús mi Dios, eres mi pasión, Señor Salvador, te doy todo
        C   G      D      Em           Am               C
Mi amor, a Tí cantaré, por la eternidad, Tú nombre se oirá
              Am                  C
por la eternidad, Tú nombre se oirá
              Am                  C
por la eternidad, Tú nombre se oirá



Final:
  C          G    D        Em                 C          G     D    X
E|------------------------------------------------------------------------|
B|-------------------------5-7-8-8-8---7-5----5---------------------------|
G|-----------7----------------------------7----7--------------------------|
D|-5-7-9-9-9---9-7-----------------------------------5-5-5-7-9-7----8s9--5|
A|------------------------------------------------------------------------|
E|------------------------------------------------------------------------|



...Mi pasión...



E|-------------------------------------------------------------------------|
B|---------------8-10----12---15---12--10--8-------------------------------|
G|-----------7-9-----------------------------------------------------------|
D|----7-9-10---------------------------------------------------------------|
A|-10----------------------------------------------------------------------|
E|-------------------------------------------------------------------------|
Otros videos de esta canción
    31 exhibiciones
      • ½ Tono
      • Am
      • Bbm
      • Bm
      • Cm
      • C#m
      • Dm
      • Ebm
      • Em
      • Fm
      • F#m
      • Gm
      • G#m
    • Agregar a la lista

    Afinação da cifra

    Afinador online

      Ops (: Contenido disponible solo en portugués.
      OK