Cifra Club

L Homme Qui Marche

Etienne Daho

Cifrado: Principal (guitarra y guitarra eléctrica)
Selo Cifra Club: esta cifra foi revisada para atender aos critérios oficiais da nossa Equipe de Qualidade.
tono: Cm
Intro (0:00)

Cm Cm

E|-------------------------------------------------|
B|--13----13----11----11----10----10----8----8-----|
G|-------------------------------------------------|
D|-----10----10----10----10----10----10---10---10--|
A|-------------------------------------------------|
E|-------------------------------------------------|

riff
E|-----------|
B|-----------|
G|-----------|
D|-----------|
A|--------3--|
E|--3-5-7----|



Verse (0:10)

Cm
Casa Novona, j'étais là très tôt ce matin
Cm
Je te cherchais à vive allure, le passé nous rattrape
Gm
Je me demande si j'ai eu raison
                    D7sus4         D7
Et me voici à Rome devant chez toi



Prechorus (0:29)

Cm
L'escalier monte à sa chambre
       Gm
Et dans ce froid de gueux
                  D7sus4    D7
L'enfant du roi fou



Chorus (0:43)

Eb
En bras de chemise lègère, dans,
Cm         
Son âme, tous nos mystères,
       Gm          D7sus4  D7
De Berlin, de Moscou

Fm
Des photos d'un ado sombre accrochées
Eb
Au mur là, devant lui, il se voit
Db                  Cm
Est-ce lui? Est-ce lui?



Bridge (1:17)

Cm
E|-------------------------------------------------|
B|--13----13----11----11----10----10----8----8-----|
G|-------------------------------------------------|
D|-----10----10----10----10----10----10---10---10--|
A|-------------------------------------------------|
E|-------------------------------------------------|
Je t'ai attendu dans ce rade triste,il était trop tôt pour ma défaite.


riff
E|-----------|
B|-----------|
G|-----------|
D|-----------|
A|--------3--|
E|--3-5-7----|



Prechorus (1:27)

Cm
L'escalier monte à sa chambre,
Gm
Et dans le froid de décembre,
    D7sus4                  D7
Son accent français le trahit



Chorus (1:41)

Cm
En bras de chemise légère,
Gm
Dans ses yeux, tous nos mystères,
   D7sus4          D7
De Marseille à Paris

Eb
Des photos d'un ado sombre,
Cm
Acrrochées au mur, devant lui,
       Gm             D7sus4  D7
Est-ce moi? Est-ce lui?



Chorus (2:15)

Fm
Comme le héros d'un livre,
          Eb
Qui ne souffrirait plus du froid,
             Db                       Cm
L'homme qui marche devant moi: est-ce moi?

Fm
Comme le héros d'un livre,
             Eb
Qui n's'ouvrirait plus qu'une fois,
             Db                 Cm
L'homme qui marche devant moi: est-ce toi? 



Bridge 2 (2:48)

Cm   Adim   Ab G 
Cm   Adim   Ab G



Chorus (3:07)

Fm
Comme le héros d'un livre,
             Eb
Qui ne souffrirait plus du froid
             Db                 Cm
L'homme qui marche devant moi: est-ce toi? 

Cm   Adim   Ab G



Outro (3:31)

Cm
Je t'ai attendu dans ce rade triste, il était trop tôt pour ma défaite.
Adim                                          Ab                G 
Je t'ai attendu dans ce rade triste, il était trop tôt pour ma défaite.
Cm
Je t'ai attendu dans ce rade triste, il était trop tôt pour ma défaite.
Adim                                          Ab                G 
Je t'ai attendu dans ce rade triste, il était trop tôt pour ma défaite.



Outro 2 (3:51)

Cm
E|-------------------------------------------------|
B|--13----13----11----11----10----10----8----8-----|
G|-------------------------------------------------|
D|-----10----10----10----10----10----10---10---10--|
A|-------------------------------------------------|
E|-------------------------------------------------|

E|------------|
B|--------4---|
G|--------5---|
D|--------5---|
A|--------3---|
E|--3-5-7-----|
Otros videos de esta canción
    0 exhibiciones
      • ½ Tono
      • Am
      • Bbm
      • Bm
      • Cm
      • C#m
      • Dm
      • Ebm
      • Em
      • Fm
      • F#m
      • Gm
      • G#m
    • Agregar a la lista

    Afinação da cifra

    Afinador online

      Ops (: Contenido disponible solo en portugués.
      OK