Cifra Club

I'd Rather Go Blind

Etta James

Cifrado: Principal (guitarra y guitarra eléctrica)
tono: E
Arpegio da guitarra durante a música

E|---------------------------------------------------------------------|
B|---------------------------------------------------------------------|
G|--------------------------------------------------------------2-2----|
D|-------------2-------------------------2-----------------2--4-----4-2|
A|-----0-0-2-4---4-2---2-----0---0-2--4-----4--2---2-----0-------------|
E|-0-2---------------2---0-2---2-----------------2---0-2---------------|

E|---------------------------------------------------------------------|
B|---------------------------------------------------------------------|
G|---------------------------------------------------------------------|
D|-----2-------------2-----------------------------7-9-9-7----7--------|
A|-2-4-------0-0-2-4---4-2---2-----0---0-----0---0--------------9------|
E|-------0-2---------------2---0-2---2---0-2---2------------------0-2--|

E|---------------------------------------------------------------------|
B|---------------------------------------------------------------------|
G|---------------------------------------------------------------------|
D|---------2---------------9-9-7-------7-------------2-----------------|
A|-0-0-2-4---4-2-----0---0-------9-7-9-------0-0-2-4---4-2---2-----0---|
E|---------------0-2---2-----------------0-2---------------2---0-2-----|

E|--------------------------------------------------------X------------|
B|--------------------------------------------------------X------------|
G|----4-4-4-4-2---------2---------------------------------X------------|
D|--------------4-4-2-4-------------2---------------------X------------|
A|--0-------------------------0-2-4---4-2---2-----0---0---X------------|
E|-2----------------------0-2-------------2---0-2---2-----X------------|

A             Bm
Something told me it was over
           A
when I saw you and her talking
                   Bm
Something deep down in my soul said, ´Cry Girl´
              A
when I saw you and that girl, walking out
                     Bm
I would rather, I would rather go blind boy
                  A
Than to see you, walk away from me child, and all

Ooooo  So you see, I love you so much
Bm
That I don't want to watch you leave me baby
                       A
Most of all, I just don't, I just don't want to be free now
                          
                        Bm
I was just, I was just, I was just sitting here thinking
              A
Of your kisses and your warm embrace, yeah
                    Bm
When the reflection in the glass that I held to my lips now baby
                  A
Revealed the tears that was on my face, yeah
                       Bm
And baby, baby, I would rather be blind boy
                 A
Than to see you walk away, see you walk away from me, yeah
                   Bm
Baby, baby, baby, I'd rather be blind now
00:00 / 00:00
Otros videos de esta canción
Repetir
Otros videos de esta canción
Composición de Bill Foster / Ellington Jordan
Colaboración y revisión:
  • Lucas Oliveira
  • DENIS PRADO
  • Marisa Oliveira
9.490 exhibiciones
    • ½ Tono
    • A
    • Bb
    • B
    • C
    • Db
    • D
    • Eb
    • E
    • F
    • F#
    • G
    • Ab
  • Agregar a la lista
    00:00 / 00:00
    OK