Cifra Club

Open Your Heart

Europe

Tab de bajo: Principal
Já pensou em usar uma coleção de roupas do Cifra Club? Responda as perguntas abaixo e nos ajude nessa missão! →
(intro do baixo/ pré-refrão)

(começa ja no Pré - refrão)
G---------------------------------------------------|
D---------------------------------------------------|
A-----------5-4-2--------------5-7-5----------------|
E--3---320---------0123---320-----------------------|

(base)
G----------------------------------------------------|
D----------------------------------------------------|
A--2-2--45-5-----------2-2--45-5---------------------|
E------------3-3--45-5------------3-3---45--5-----19-|

(pré -refrão 1x)

(refrão)
(espere a intro da guitarra)
G-------------------------------------------------------|
D-------------------------------------------------------|
A--2-------5500-----------------------------------------|
E-----333--------2---333--0-455-------------------------|(2x)

(em seguida volta na base)
Composición de Joey Tempest
Colaboración y revisión:
  • Jorge Andrade
107 vistas

0 comentarios

Ver todos los comentarios

¿Lograste tocar?

0 Tocaron 0 Aún no

¡Graba un video tocando Open Your Heart y envíanoslo!

00:00 / 00:00
Outros vídeos desta música
Repetir Calidad Automático
Outros vídeos desta música
00:00 / 00:00
Automático
OK