Cifra Club

The Final Countdown

Europe

Tablatura: Versão 8 (guitarra)
Já pensou em usar uma coleção de roupas do Cifra Club? Responda as perguntas abaixo e nos ajude nessa missão! →
tono: D
E |-------------------------------------------5---8-6-8-----8-6-8-6----8-6-8-----8-6-8-6------
B |-------------------------------------------7----------6----------8---------6----------7-5-6
G |-------------------------------------------6-----------------------------------------------
D |-------------------------------------------------------------------------------------------
A |-------------------------------------------------------------------------------------------
E |----------2/3h5~~-2/3h5~~-2/3h5~~-2/3h5~~--------------------------------------------------

E |8-6-8-----8-6-8-6----8-6-8-----8-6-8-6-----------------------------------------------------
B |-------6----------8---------6----------7-5-6--5-7--5-8--5-8-5-7-5---9b-8--10b-8-9-8---~~~~~
G |-----------------------------------------------------------------5-------------------------
D |-------------------------------------------------------------------------------------------
A |-------------------------------------------------------------------------------------------
E |-------------------------------------------------------------------------------------------

Composição de Joey Tempest
Colaboración y revision:
  • Ivan Oliveira
16 reproducciones
    • ½ Tono
    • A
    • Bb
    • B
    • C
    • Db
    • D
    • Eb
    • E
    • F
    • F#
    • G
    • Ab
  • Adicionar à lista

    0 comentarios

    Ver todos os comentários

    ¿Conseguiste tocar?

    0 Tocaram 0 Ainda não

    Grave um vídeo tocando The Final Countdown e nos envie!

    00:00 / 00:00
    outros vídeos desta música
    repetir qualidade Automático
    Outros vídeos desta música
    00:00 / 00:00
    Automático
    OK