Cifra Club

The Final Countdown

Europe

Tablatura: Solo (guitarra)
tono: A
Solo:

(Parte 1)

E|----10-14p10----10-14p10----10-14p10----10-14p10----|
B|-12----------12----------12----------12-------------|
G|----------------------------------------------------|
D|----------------------------------------------------|
A|----------------------------------------------------|
E|----------------------------------------------------|

E|----10-14p10-------12-15p12----12-15p12----12-15p12-|
B|-12----------12-14----------14----------14----------|
G|----------------------------------------------------|
D|----------------------------------------------------|
A|----------------------------------------------------|
E|----------------------------------------------------|

E|----12-15p12----12-15p12-------14-17p14----14-17p14-|
B|-14----------14----------14-15----------15----------|
G|----------------------------------------------------|
D|----------------------------------------------------|
A|----------------------------------------------------|
E|----------------------------------------------------|

E|----14-17p14----14-17p14----14-17\------------------|
B|-15----------15----------15-------------------------|
G|----------------------------------------------------|
D|----------------------------------------------------|
A|----------------------------------------------------|
E|----------------------------------------------------|

E|---7-10p7---7-10p7------7---------------------------|
B|-8--------8--------8-10---10-8-7-8-7----------------|
G|-------------------------------------9-7-9~~--------|
D|----------------------------------------------------|
A|----------------------------------------------------|
E|----------------------------------------------------|


(Parte 2)

E|----------------------------------------------------|
B|-8-8-8-7h8p7----------------------------------------|
G|-------------9-7--7---6---4---2---------------------|
D|----------------------------------------------------|
A|----------------------------------------------------|
E|----------------------------------------------------|


(Parte 3)

E|---------7-------------7----------------------------|
B|-10b12~----7-10----------10p7-9p6-7-----------------|
G|----------------9b11r---------------7-10-9p7---9----|
D|---------------------------------------------9------|
A|----------------------------------------------------|
E|----------------------------------------------------|

E|----------------------------------------------------|
B|----------------------------------------------------|
G|---7h9~---------------------------------------------|
D|-9--------------------------------------------------|
A|----------------------------------------------------|
E|----------------------------------------------------|


(Parte 4)

E|----10-14p10----10-14p10----10-14p10----10-14p10----|
B|-12----------12----------12----------12-------------|
G|----------------------------------------------------|
D|----------------------------------------------------|
A|----------------------------------------------------|
E|----------------------------------------------------|

E|----10-14p10-------12-15p12----12-15p12----12-15p12-|
B|-12----------12-14----------14----------14----------|
G|----------------------------------------------------|
D|----------------------------------------------------|
A|----------------------------------------------------|
E|----------------------------------------------------|

E|----12-15p12----12-15p12-------14-17p14----14-17p14-|
B|-14----------14----------14-15----------15----------|
G|----------------------------------------------------|
D|----------------------------------------------------|
A|----------------------------------------------------|
E|----------------------------------------------------|

E|----14-17p14----14-17p14----14-17\------------------|
B|-15----------15----------15-------------------------|
G|----------------------------------------------------|
D|----------------------------------------------------|
A|----------------------------------------------------|
E|----------------------------------------------------|

E|---7-10p7---7-10p7------7---------------------------|
B|-8--------8--------8-10---10-8-7-10-10-8-7----------|
G|-------------------------------------------9~~------|
D|----------------------------------------------------|
A|----------------------------------------------------|
E|----------------------------------------------------|


(Parte 5)

E|----------------------------------------------------|
B|-8-8-8-7h8p7-----10b12r10--------7------------------|
G|-------------9-7-----------7--9--9b11~~-------------|
D|----------------------------------------------------|
A|----------------------------------------------------|
E|----------------------------------------------------|


(Parte 6)

E|----------------------------------------------------|
B|-9------12--9---------------------------------------|
G|-11b13------11b13r~---------------------------------|
D|----------------------------------------------------|
A|----------------------------------------------------|
E|----------------------------------------------------|
Composição de Joey Tempest
Colaboración y revision:
  • Vinícius Dias
  • Alberto Morera
330 reproducciones
    • ½ Tono
    • A
    • Bb
    • B
    • C
    • Db
    • D
    • Eb
    • E
    • F
    • F#
    • G
    • Ab
  • Adicionar à lista

    0 comentarios

    Ver todos os comentários

    ¿Conseguiste tocar?

    0 Tocaram 0 Ainda não

    Grave um vídeo tocando The Final Countdown e nos envie!

    00:00 / 00:00
    outros vídeos desta música
    repetir qualidade Automático
    Outros vídeos desta música
    00:00 / 00:00
    Automático
    OK