Cifra Club

Homenaje a Verónica

Eva Ayllón

Cifrado: Principal (guitarra y guitarra eléctrica)
tono: Dm

E|------------------------3-5---------|
B|---------------------------3--------|
G|------------------------------------|
D|-5/7-7-3-2-00-0h2-------------------|
A|-----------------1-3-1-0------------|
E|------------------------------------|

E|-5-3-1-0-6.-------------------------|
B|--------2---------------------------|
G|-2-0---0-----3-5-3-2----------------|
D|--------------------2-3-2-0---------|
A|------------------------------------|
E|------------------------------------|

E|-5-5-6-8-6-5-10-11-8-----8---------------|
B|--------------------11-10-10-8-7-10-7----|
G|-------------------------------------8-7-|
D|-----------------------------------------|
A|-----------------------------------------|
E|-----------------------------------------|

E|------------------------------------|
B|-------------------1-3--------------|
G|------0-2-3-2-0-2-3-----------------|
D|-0-2-4------------------------------|
A|------------------------------------|
E|------------------------------------|

E|-1-1-3-5-3-5--3-2-3--0-------0-1-3-5-10-12-13.--|
B|-1-1-5-6-5-6--5-2-5--2-3--2-3-------------------|
G|------------------------------------------------|
D|------------------------------------------------|
A|------------------------------------------------|
E|------------------------------------------------|

Te llevaré conmigo a donde vayas (e|-10--10--10-- . . . . .
                                  (b|---10--10--10

…en nosotros no existe ni existirá el adios.
E|-5-5-3-3-1-1(X2)-5-5-3-3-1-0-3-3-1-1-0-0--|
B|------------------------------------------|
G|------------------------------------------|
D|------------------------------------------|
A|------------------------------------------|
E|------------------------------------------|

E|------5---------1-0-1-0-0-3-1-0-----|
B|-5-4-5-5-5-3-2-3-------4------------|
G|-----6------------------------------|
D|------------------------------------|
A|------------------------------------|
E|------------------------------------|

E|-6-5-3------------------------------|
B|------6-5-3-2.----------------------|
G|------------------------------------|
D|------------------------------------|
A|------------------------------------|
E|------------------------------------|

E|-5-5-3-3-1-1(X2)-5-5-3-3-1-0-3-3-1-1-0-0--|
B|------------------------------------------|
G|------------------------------------------|
D|------------------------------------------|
A|------------------------------------------|
E|------------------------------------------|

E|------5-----------------------8-7-5-|
B|-5-4-5-5-5-4-3-4-5-4-5-4-3-4-5------|
G|------------------------------------|
D|------------------------------------|
A|------------------------------------|
E|------------------------------------|

E|-----------0-5-7-8------------------|
B|------0-1-3-------------------------|
G|-2-3-2------------------------------|
D|------------------------------------|
A|------------------------------------|
E|------------------------------------|

Si llorando por ti yo pudiera pagar…
...las horas que perdí.
E|-5-5-5-5-3-1(X2)-1-1-1-6-6-6-0--3-3-3-3-1-0--|
B|---------------------------------------------|
G|---------------------------------------------|
D|---------------------------------------------|
A|---------------------------------------------|
E|---------------------------------------------|

E|---------5-6-5------------------------5-10--|
B|----5-6-8-----8-6-5------------------6------|
G|-5-6---------------6-5------------6-7-------|
D|----------------------8-7-5-----------------|
A|---------------------------8-7-5------------|
E|--------------------------------------------|
Que nos paso a los dos que al volvernos a ver después de…
...para borrarlo todo.


Esta mas o menos cualquier corrección sea para la mejora
de esta tablatura, cualquier duda o comentario a mi correo
PDTA:Si poseen otras tablaturas podriamos intercambiar.
¡VIVA A  MUBCA  CRIOLA  BEM PD !
Compositor não encontrado.
    • ½ Tono
    • Am
    • Bbm
    • Bm
    • Cm
    • C#m
    • Dm
    • Ebm
    • Em
    • Fm
    • F#m
    • Gm
    • G#m
  • Agregar a la lista

    0 comentarios

    Ver todos los comentarios

    ¿Lograste tocar?

    0 Tocaron 0 Aún no

    ¡Graba un video tocando Homenaje a Verónica y envíanoslo!

    00:00 / 00:00
    Outros vídeos desta música
    Repetir Calidad Automático
    Outros vídeos desta música
    00:00 / 00:00
    Automático
    OK