Cifra Club

Mal paso

Eva Ayllón

Cifrado: Principal (guitarra y guitarra eléctrica)
tono: C
                  F          Dm       F
E|-----0-2-4-4-5-7-8----------10---8--8----|
B|-----1-3-5-5-6-9-10-------10------10-10--|
G|------------------------10---------------|
D|----------------------10-----------------|

                       G             C
E|-------------8------8-10---8--8---------|
B|-----------10-10-----10-----10-10-8-9---|
G|-------9-10-----------------------------|
D|--10-12---------------------------------|

                C     Em
E|---0-3-0-------030-0---0-3-0-------|
B|---------3-1------3----------3-1---|

   Am    G            C
E|-030-0---0-3-0------301-301-301-40--40--40---5-5-5----|
B|----3----------3-1----------------0---0---0--5-5-5----|
G|---------------------------------------------5-5-5----|

E|---0-3-0-------030-0---0-3-0-------|
B|---------3-1------3----------3-1---|

E|-030-0---0-3-0------301-301-301-40--40--40---545----|
B|----3----------3-1----------------0---0---0-----5---|
G|-----------------------------------------5----------|
D|------------------------------------------7---------|
Composición de Luis Abelardo Nuñez
11 vistas
    • ½ Tono
    • A
    • Bb
    • B
    • C
    • Db
    • D
    • Eb
    • E
    • F
    • F#
    • G
    • Ab
  • Agregar a la lista

    0 comentarios

    Ver todos los comentarios

    ¿Lograste tocar?

    0 Tocaron 0 Aún no

    ¡Graba un video tocando Mal paso y envíanoslo!

    00:00 / 00:00
    Outros vídeos desta música
    Repetir Calidad Automático
    Outros vídeos desta música
    00:00 / 00:00
    Automático
    OK