Cifra Club

Nada Soy

Eva Ayllón

Cifrado: Principal (guitarra y guitarra eléctrica)
tono: C
E|---------10--12-13---| e------5---7-8----
B|-------10---------11-| B-----5--------7--
G|-----10--------------| G----5------------
D|---12----------------| D---7-------------
A|--12-----------------| A--7--------------
E|---------------------| E-----------------

E|----------7-7-7--10-10-10--8--------|
B|----9-9-9-7-7-7--12-12-12--10-------|
G|-9--9-9-9---------------------------|
D|------------------------------------|
A|------------------------------------|
E|------------------------------------|

E|---------8--------|
B|-------10---------|
G|-----9------------|
D|-9-10-------------|
A|------------------|
E|------------------|
Compositor não encontrado.
7 vistas
    • ½ Tono
    • A
    • Bb
    • B
    • C
    • Db
    • D
    • Eb
    • E
    • F
    • F#
    • G
    • Ab
  • Agregar a la lista

    0 comentarios

    Ver todos los comentarios

    ¿Lograste tocar?

    0 Tocaron 0 Aún no

    ¡Graba un video tocando Nada Soy y envíanoslo!

    00:00 / 00:00
    Outros vídeos desta música
    Repetir Calidad Automático
    Outros vídeos desta música
    00:00 / 00:00
    Automático
    OK