Cifra Club

Everybody's Fool

Evanescence

Tablatura: Principal (guitarra)
tono: F
(Introdução – Parte 1) Dm  D5(9)

Introdução – Parte 2:

   P.M
E|------------------------------------------|
B|------------------------------------------|
G|------------------------------------------|
D|------------------------------------------|
A|-0-0-3-3-3-3------------------------------|
D|-0-0-3-3-3-3------------------------------|

            P.M
E|------------------------------------------|
B|------------------------------------------|
G|------------------------------------------|  (2x)
D|------------------------------------------|
A|-0--0--0--0-0-7h8p7--10--10--10--0-0-7\---|
D|-0--0--0--0-0-7h8p7--10--10--10--0-0-7\---|


Primeira Parte:

E|------------------------------------------|
B|------------------------------------------|
G|------------------------------------------|
D|------------------------------------------|
A|-0-0----0-0----1/3-3-3-3------------------|
D|-0-0----0-0-------------------------------|
                 P.M.
E|------------------------------------------|
B|------------------------------------------|
G|------------------------------------------|
D|------------------------------------------|
A|-0-0----0-0------3-3-3-3------------------|
D|-0-0----0-0----0--------------------------|

E|------------------------------------------|
B|------------------------------------------|
G|------------------------------------------|
D|------------------------------------------|
A|-0-0----0-0----1/3-3-3-3------------------|
D|-0-0----0-0-------------------------------|
               P.M
E|------------------------------------------|
B|------------------------------------------|
G|------------------------------------------|
D|------------------------------------------|
A|-8--5--7\----0-0-3~\----------------------|
D|-8--5--7\----0-0-3~\----------------------|

Perfect by nature
Icons of self indulgence

Just what we all need
More lies about a world that


Primeiro Refrão:

            P.M
E|------------------------------------------|
B|------------------------------------------|
G|------------------------------------------|
D|------------------------------------------|
A|-0--0--0--0-0-7h8p7--10--10--10--0-0-7\---|
D|-0--0--0--0-0-7h8p7--10--10--10--0-0-7\---|
            P.M
E|------------------------------------------|
B|------------------------------------------|
G|------------------------------------------|
D|------------------------------------------|
A|-0--0--0--0-0-7h8p7--10--10--10--0-0-7\---|
D|-0--0--0--0-0-7h8p7--10--10--10--0-0-7\---|

E|------------------------------------------|
B|------------------------------------------|
G|------------------------------------------|
D|------------------------------------------|
A|-7-8~---7--5~--/8~--7\--------------------|
D|-7-8~---7--5~--/8~--7\--------------------|

Never was and never will be
Have you no shame?
Don't you see me?
You know you've got everybody fooled

Passagem 1:

        P.M .   .      .
E|------------------------------------------|
B|------------------------------------------|
G|------------------------------------------|  (2x)
D|------------------------------------------|
A|-0----0-0-0-0-x-0------3-3-3-3------------|
D|-0----0-0-0-0-x-0----0--------------------|


Segunda Parte:

Look, here she comes now
Bow down and stare in wonder

Oh, how we love you
No flaws when you're pretending

E|------------------------------------------|
B|------------------------------------------|
G|------------------------------------------|
D|------------------------------------------|
A|-/5\3---/8\7\--/5\3---/8/10~--------------|
D|------------------------------------------|

But now I know she


Segundo Refrão:

Never was and never will be
You don't know how you've betrayed me
And somehow you've got everybody fooled


Terceira Parte:

Without the mask
Where will you hide?
Can't find yourself lost in your lie


Quarta Parte:

E|------------------------------------------|
B|------------------------------------------|
G|------------------------------------------|
D|------------------------------------------|
A|-0--0--0--7h8p7--10--10--10----7----------|
D|-0--0--0--7h8p7--10--10--10----7----------|

E|------------------------------------------|
B|------------------------------------------|
G|------------------------------------------|
D|------------------------------------------|
A|-8--8--8---7~--5--5--5--------------------|
D|-8--8--8---7~--5--5--5--------------------|

E|------------------------------------------|
B|------------------------------------------|
G|------------------------------------------|
D|------------------------------------------|
A|-7--8h10-8--8--8---8-8-7------------------|
D|-7--8h10-8--8--8---8-8-7------------------|

E|------------------------------------------|
B|------------------------------------------|
G|------------------------------------------|
D|------------------------------------------|
A|-10--10--7~-------------------------------|
D|-10--10--7~-------------------------------|

I know the truth now
I know who you are
And I don't love you anymore


Terceiro Refrão:

Never was and never will be
You don't know how you've betrayed me
And somehow you've got everybody fooled


Quarto Refrão:

It never was and never will be
You're not real then you can't save me
Somehow now you're everybody's fool


Final:

            P.M
E|------------------------------------------|
B|------------------------------------------|
G|------------------------------------------|
D|------------------------------------------|
A|-0--0--0--0-0-7h8p7--10--10--10--0-0-7\---|
D|-0--0--0--0-0-7h8p7--10--10--10--0-0-7\---|
            P.M
E|------------------------------------------|
B|------------------------------------------|
G|------------------------------------------|
D|------------------------------------------|
A|-0--0--0--0-0-7h8p7--10--10--10--0-0-7\---|
D|-0--0--0--0-0-7h8p7--10--10--10--0-0-7\---|

E|------------------------------------------|
B|------------------------------------------|
G|------------------------------------------|
D|------------------------------------------|
A|-7-8~---7--5~--7/8~--7--------------------|
D|-7-8~---7--5~--7/8~--7--------------------|
        P.M .   .
E|------------------------------------------|
B|------------------------------------------|
G|------------------------------------------|
D|------------------------------------------|
A|-0----0-0-0-0-x-0-------------------------|
D|-0----0-0-0-0-x-0-------------------------|
Composição de Amy Lee / Ben Moody / David Hodges
Colaboración y revision:
  • Vinícius Dias
  • Layane
  • Caio Felintro
1.911 reproducciones
    • ½ Tono
    • A
    • Bb
    • B
    • C
    • Db
    • D
    • Eb
    • E
    • F
    • F#
    • G
    • Ab
  • Adicionar à lista

    0 comentarios

    Ver todos os comentários

    ¿Conseguiste tocar?

    15 Tocaram 1 Ainda não

    Grave um vídeo tocando Everybody's Fool e nos envie!

    00:00 / 00:00
    outros vídeos desta música
    repetir qualidade Automático
    Outros vídeos desta música
    00:00 / 00:00
    Automático
    Capítulos
    • Início
    • Afinação
    • Tocando a música
    • Acordes da Introdução
    • Tocando Introdução
    • Ensinando Introdução
    • Acordes da Primeira Parte
    • Tocando Primeira Parte
    • Ensinando Primeira Parte
    • Tocando Refrão
    • Ensinando Refrão
    • Tocando Segunda Parte
    • Ensinando Segundao Parte
    • Tocando Terceira e Quarta Parte
    • Ensinando Quarta Parte
    • Tocando Final
    • Ensinando Passagem do Final
    • Encerramento
    OK