Cifra Club

Going Under

Evanescence

Cifrado: Principal (guitarra y guitarra eléctrica)
tono: D
[Primeira Parte]

 B5/F#
Now I will

Tell you what
B5/F#
I've done for you
B5/F#              
      Fifty thousand
             B5/F#
Tears I've cried
   B5/F#   
Screaming, deceiving
      B5/F#
And bleeding for you
     B5/F#  
And you still
       B5/F#
Won't hear me

Going under

[Segunda Parte]

 B5/F#
Don't want

Your hand
          B5/F#
This time I'll

 Save myself
B5/F#          
      Maybe I'll
            B5/F#
Wake up for once
     B5/F#
Not tormented daily
   B5/F#
Defeated by you

Just when
B5/F#
I thought
     B5/F#
I'd reached

The bottom

I'm dying again

[Primeiro Refrão]

          B5/F#
I'm going under
  G5   D5/A
(going under)
  A5         B5/F#
Drowning in you
   G5         D5/A
(drowning in you)
        A      B5/F#
I'm falling forever
     G5       D5/A
(falling forever)
          A5   
I've got to
     B5/F#   G5
Break     through
    D5/A  A    B5/F#
I'm      going under

[Terceira Parte]

  B5/F#
Blurring and stirring
      B5/F#
The truth and the lies
       B5/F#     
(So I don't know what's
                 B5/F#
Real and what's not)
B5/F#            
Always confusing the
  B5/F#
Thoughts in my head
B5/F#             
     So I can't trust
   B5/F#
Myself anymore

I'm dying again

[Segundo Refrão]

          B5/F#
I'm going under
  G5   D5/A
(going under)
  A5         B5/F#
Drowning in you
   G5         D5/A
(drowning in you)
        A      B5/F#
I'm falling forever
     G5       D5/A
(falling forever)
          A5   
I've got to
     B5/F#   G5
Break     through
    D5/A     A
I'm      so go
          G5
On and scream

[Quarta Parte]

           F#5   
Scream at me I'm
         B5/F#
So far away

I won't be
         G5
Broken again

I've got
     F#5
To breathe

I can't keep

Going under

[Solo] B5/F#  G5  D5/A  A5
       B5/F#  G5  D5/A  A

                 H.a
E|----------------------------------------------------|
B|----------------------------------------------------|
G|---------7--7--------7h9p7-4-7p4-------4~-----------|
D|-----7-9-------9~~---------------7-4-7--------------|
A|-7h9------------------------------------------------|
E|----------------------------------------------------|

E|----------------------------------------------------|
B|-10b12~--b12--b12--b12--b12r--8h10p8-7h8p7---7------|
G|-------------------------------------------9---9----|
D|----------------------------------------------------|
A|----------------------------------------------------|
E|----------------------------------------------------|
             H.a
E|----------------------------------------------------|
B|----------------------------------------------------|
G|-7---7---7-9br~p7-----------------------------------|
D|---9---9----------9~--------------------------------|
A|----------------------------------------------------|
E|----------------------------------------------------|

I'm dying again

[Terceiro Refrão]

          B5/F#
I'm going under
  G5   D5/A
(going under)
  A5         B5/F#
Drowning in you
   G5         D5/A
(drowning in you)
        A      B5/F#
I'm falling forever
     G5       D5/A
(falling forever)
          A5   
I've got to
     B5/F#   G5
Break     through
    D5/A  A    
I'm      going
B5/F#   G5   D5/A
Under (going under)
     A5   B5/F#    
I'm going under
   G5         D5/A
(drowning in you)
     A    B5/F#
I'm going under
00:00 / 00:00
Otros videos de esta canción
Repetir
Otros videos de esta canción
Composición de Amy Lee / Ben Moody / David Hodges
5.483 vistas
    • ½ Tono
    • A
    • Bb
    • B
    • C
    • Db
    • D
    • Eb
    • E
    • F
    • F#
    • G
    • Ab
  • Agregar a la lista

    0 comentarios

    Ver todos los comentarios
    00:00 / 00:00
    Capítulos
    • Início
    • Tocando a Música
    • Acordes Primeira Parte
    • Tocando Primeira Parte
    • Ritmo Primeira Parte
    • Tocando Segunda Parte
    • Ritmo Segunda Guitarra
    • Acordes Refrão
    • Tocando o Refrão
    • Ritmo Refrão
    • Acordes da Terceira e Quarta Parte
    • Tocando Terceira e Quarta Parte
    • Ritmo Quarta Parte
    • Tocando Solo
    • Ensinando Solo
    • Tocando Final
    • Encerramento
    OK