Cifra Club

Aprenda

Hello

Evanescence

Tablatura: Principal (guitarra)
tono: D
(intro)

    Bm
E|---------------------------------------------|
B|-------3-3----2-------------3-3----2---------|
G|-----------4----2---------------4----2-------|
D|----4-------------4------4-------------4-----|
A|-2------------------2--2-----------------2---|
E|---------------------------------------------|

    A
E|---------------------------|
B|-------2-2----0------------|
G|-----------2----2----------|
D|----2-------------2--------|
A|-0------------------0------|
E|---------------------------|

    F#m
E|---------------------------|
B|------2-2----3----2--------|
G|--------------------2------|
D|----------------------2----|
A|---4------4----4-----------|
E|-2-------------------------|

   Bm         Bm         A       F#m
Playground school bell rings again
   Bm      Bm         A      F#m
Rain clouds come to play again
G           F#m                 Bm
Has no one told you she's not breathing?
  A          G          Em
Hello I'm your mind giving you
 Em       F#m
Someone to talk to
 F#m
Hello...

    Bm           A      F#m
If I smile and don't believe
      Bm           A           F#m
Soon i know I'll wake from this dream
G           F#m           Bm
Don't try to fix me I'm not broken
         A              G             Em
Hello I'm the lie living for you so you can hide
  F#m
Don't cry

  G         F#m           Bm
Suddenly I know I'm not sleeping
  A             G
Hello I'm still here
  G        Em           F#m
All that's left of yesterday

( Bm  A  F#m )
Composição de Amy Lee / Ben Moody / David Hodges
Colaboración y revision:
  • Douglas Maciano
  • amY OI
  • Caio Felintro
2.208 reproducciones
    • ½ Tono
    • A
    • Bb
    • B
    • C
    • Db
    • D
    • Eb
    • E
    • F
    • F#
    • G
    • Ab
  • Adicionar à lista

    0 comentarios

    Ver todos os comentários

    ¿Conseguiste tocar?

    24 Tocaram 0 Ainda não

    Grave um vídeo tocando Hello e nos envie!

    00:00 / 00:00
    outros vídeos desta música
    repetir qualidade Automático
    Outros vídeos desta música
    00:00 / 00:00
    Automático
    OK