Cifra Club

My Immortal

Evanescence

Tablatura: Principal (guitarra)
tono: A
[Intro] A  C#m  A9  C#m

   A                   C#m    
E|-----------------------------------------|
B|---------2-------------------------------|
G|-----2-------2---------------6-----------|
D|---2---2---2---2---------6---------------|
A|-0---------------------7---7-------------|
E|---------------------9-------------------|

   A9                  C#m    
E|-----------------------------------------|
B|---------0-------------------------------|
G|-----2-------2---------------6-----------|
D|---2---2---2---2---------6---------------|
A|-0---------------------7---7-------------|
E|---------------------9-------------------|

[Primeira Parte]

A                        C#m
  I'm so tired of being here
A9                      C#m
  Suppressed by all of my childish fears
A
  And if you have to leave
C#m
  I wish that you would just leave
A9
  Your presence still lingers here
C#m                       F#m
  And it won't leave me alone

[Pré-Refrão]

  C#m                       F#m
These wounds won't seem to heal
  C#m                  F#m
This pain is just too real
  C#m                       E
There's just too much that time cannot erase

[Refrão]

F#m          D        E        C#m
  When you cried i'd wipe away all of your tears
F#m             D        E         C#m
  When you'd scream i'd fight away all of your fears
F#m         D         E           C#m
  And i've held your hand through all of these years
F#m         D    E            
  But you still have all of me

( A  C#m  A9  C#m )

   A                   C#m    
E|-----------------------------------------|
B|---------2-------------------------------|
G|-----2-------2---------------6-----------|
D|---2---2---2---2---------6---------------|
A|-0---------------------7---7-------------|
E|---------------------9-------------------|

   A9                  C#m    
E|-----------------------------------------|
B|---------0-------------------------------|
G|-----2-------2---------------6-----------|
D|---2---2---2---2---------6---------------|
A|-0---------------------7---7-------------|
E|---------------------9-------------------|

[Segunda Parte]

A
  You used to captivate me
C#m
  By your resonating light
A9                          C#m
  But now i'm bound by the life you left behind
A                    C#m
  Your face it haunts my once pleasant dreams
A9                         C#m                 F#m
  Your voice it chased away all the sanity in me

[Pré-Refrão]

  C#m                       F#m
These wounds won't seem to heal
  C#m                 F#m
This pain is just too real
  C#m                       E
There's just too much that time cannot erase

[Refrão]

F#m          D        E        C#m
  When you cried i'd wipe away all of your tears
F#m             D        E         C#m
  When you'd scream i'd fight away all of your fears
F#m         D         E           C#m
  And i've held your hand through all of these years
F#m         D    E            
  But you still have all of me

[Ponte]

D              F#m            E                D
I've tried so hard to tell myself that you're gone
      Bm                 E/C#
But though you're still with me
D           E
I've been alone all along

[Solo] F#m  D  E  C#m  F#m  D  E  C#m

E|-----------------------------------------|
B|-----------------------------------------|
G|-----------------------------------------|
D|-----7-9-7~---7-6--------7-6---6b7r6-----|
A|-7-9--------------9~---9-------------7---|
E|---------------------------------------9-|

E|-----------------------------------------|
B|-----------------------------------------|
G|-6---------------------------------------|
D|---9-7\6/7---7p6--------7-9---6b7r6------|
A|-----------------9----9------------------|
E|-----------------------------------------|

E|-----------------------------------------|
B|-----------------------------------------|
G|-6h7p6---6-------------------------------|
D|-------9---9-7-6-7~----------------------|
A|-----------------------------------------|
E|-----------------------------------------|

[Refrão]

F#m          D        E        C#m
  When you cried i'd wipe away all of your tears
F#m             D        E         C#m
  When you'd scream i'd fight away all of your fears
F#m         D         E           C#m
  And i've held your hand through all of these years
F#m         D    E            
  But you still have all of me

[Final] A  C#m  A9  C#m
        A  C#m  A9  C#m 

(Variação final)

   A                   C#m    
E|-----------------------------------------|
B|---------2-------------------------------|
G|-----2-------2---------------6-----------|
D|---2---2---2---2---------6---------------|
A|-0---------------------7---7-------------|
E|---------------------9-------------------|

   A9                  C#m               A5
E|-----------------------------------------|
B|---------0-------------------------------|
G|-----2-------2---------------6---------2-|
D|---2---2---2---2---------6-------9-----2-|
A|-0---------------------7---7---7---7---0-|
E|---------------------9-------------------|
Composição de Amy Lee / Ben Moody / David Hodges
27.957 reproducciones
    • ½ Tono
    • A
    • Bb
    • B
    • C
    • Db
    • D
    • Eb
    • E
    • F
    • F#
    • G
    • Ab
  • Adicionar à lista

    0 comentarios

    Ver todos os comentários
    00:00 / 00:00
    outros vídeos desta música
    repetir qualidade Automático
    Outros vídeos desta música
    00:00 / 00:00
    Automático
    OK