Cifra Club

My Immortal

Evanescence

Tablatura: Principal
reproducciones 18.350
Tono: A
Intro Arpejando (Dedilhado)


         A            C#m          A9               C#m
E|-------------------------------------------------------|
B|-------2-----------5-----------0---------5-------------|
G|----2----2------6----6------2----2-----6---------------|
D|---2-2--2-2----6-6--6------2-2--2-2---6-6--------------|
A|--0-----------4-----------0----------4-----------------|
E|-------------------------------------------------------|

         A            C#m          A9               C#m
E|-------------------------------------------------------|
B|-------2-----------5-----------0---------5-------------|
G|----2----2------6----6------3----3-----6---------------|
D|---2-2--2-2----6-6--6-6----3-3--3-3---6-6--------------|
A|--0-----------4-----------0----------4-----------------|
E|-------------------------------------------------------|

         A            C#m          A9               C#m
E|-------------------------------------------------------|
B|-------2-----------5-----------0---------5-------------|
G|----2----2------6----6------3----3-----6---------------|
D|---2-2--2-2----6-6--6-6----3-3--3-3---6-6--------------|
A|--0-----------4-----------0----------4-----------------|
E|-------------------------------------------------------|


(Verso Arpejando - a partir de F#m toca normal)

A                         C#m
I'm so tired of being here.

A9                      C#m
Suppressed by all of my childish fears.

A
And if you have to leave.

C#m
I wish that you would just leave.

A9
Your presence still lingers here.

C#m                    F#m
And it won't leave me alone.

(Ponte)

C#m                        F#m
These wounds won't seem to heal.

C#m                   F#m
This pain is just too real.

C#m                        E
There's just too much that time cannot erase.

(Refrão)

F#m        D        E        C#m
When you cried i'd wipe away all of your tears.

F#m          D          E        C#m
When you'd scream i'd fight away all of your fears.

F#m       D         E           C#m
And i've held your hand through all of these years.

F#m      D     E             A C#m A9 C#m (Arpejando)
But you still have all of me

(Verso Arpejando - a partir de F#m toca normal)

A
You used to captivate me.

C#m
By your resonating light.

A9                       C#m
But now i'm bound by the life you left behind.

A                  C#m
Your face it haunts my once pleasant dreams.

A9                       C#m                  F#m
Your voice it chased away all the sanity in me.

(Ponte)

C#m                        F#m
These wounds won't seem to heal.

C#m                   F#m
This pain is just too real.

C#m                        E
There's just too much that time cannot erase.

(Refrão)

F#m        D        E        C#m
When you cried i'd wipe away all of your tears.

F#m          D          E        C#m
When you'd scream i'd fight away all of your fears.

F#m       D         E           C#m
And i've held your hand through all of these years.

F#m      D     E
But you still have all of me.


 D             F#m            E               D
I've tried so hard to tell myself that you're gone.
      Bm                E/C#
But though you're still with me.
 D          E
I've been alone all along.

Violão/ guitarra base - F#m D E C#m F#m D E C#m


Violão/ guitarra solo

E|-------------------------------------------------------------------------------------------|
B|-------------------------------------------------------------------------------------------|
G|-------------------------------------6-------------------------------------6-7---6---------|
D|-----7-9-7--7-6------7-6b7--6----------9-7-6-7--7-6------7-9--11h12-11---------9---9-7-6-7-|
A|-7-9------------9--9----------7---------------------9--9-----------------------------------|
E|--------------------------------9--9-------------------------------------------------------|


(Refrão)

F#m        D        E        C#m
When you cried i'd wipe away all of your tears.

F#m          D          E        C#m
When you'd scream i'd fight away all of your fears.

F#m       D         E           C#m
And i've held your hand through all of these years.

F#m      D     E
But you still have all of me.

A C#m A9 C#m A C#m A9 C#m (Arpejando)

0 comentarios

    mostrar más comentarios

    ¿Conseguiste tocar?

    173tocaron3aún no

    ¡Graba un vídeo tocando My Immortal y envianoslo!

    00:00 / 00:00
    outros vídeos desta música
    repetirqualidadeautomática
    Outro vídeos desta música
      00:00 / 00:00
      automática
      OK