Cifra Club

October

Evanescence

Tablatura: Principal (guitarra)
tono: C
Obs: Afinar suas cordas em "D, A, D, G, C, E"

Intro: (F F9/E Dm Bb C C7)

Acordes:

    F  F9/E  Dm  Bb  C  C7
E|--0----0----0---1--0---0----
C|--0----0----2---0--0---0----
G|--2----0----2---3--0---3----
D|--3----3----3---0--2---2----
A|--3----3----0---1--3---3----
D|--3----2----0---0--0---0----

Dedilhado: a maior parte da música
e|----------------------------------------------------------------------------
B|----------------------------------------------------------------------------
G|----------------------------------------------------------------------------
D|-----5-----3-----5-----3-----3--------------5-----3-----5-----3-----5/7-----
A|---3-----3-----3-----3-----3---3---3------3-----3-----3-----3-----3---------
D|-3-----3-----3-----3-----3-------3---3--2-----2-----2-----2-----2-----------
                                                                              

-------------------------------------------------------------------|
-------------------------------------------------------------------|
------------------------------------------0-----3------2-----------|
------3-----5-----7-----5-----3---0-3---0-----0----0-----0---3-----|
----0-----0-----0-----0-----0---1-----1-----1--------1-----1-------|
--0-----0-----0-----0-----0----------------------------------------|


(F F9/E Dm Bb)
I can't run anymore, 
I fall before you, 
Here I am, 
I have nothing left, 
Though I've tried to forget, 
You're all that I am, 
Take me home, 
I'm through fighting it, 
Broken, 
Lifeless, 
I give up, 
You're my only strength, 
Without you, 
I can't go on, 
Anymore, 
Ever again. 

Passagem:
E|-------------------------------------------------------------- |
C|-------------------------------------------------------------- | 
G|------5-----5-----5-----5-----5-------5-----5-----5-----5----- |2x 
D|----5-----5-----5-----5-----5-------5-----5-----5-----5------- | 
A|-------------------------------------------------------------- |
D|--3-----2-----0-----0-----0-----7-8-----5-----7-----8-----7-5- |

refrão:
------

F  F9/E Dm 
My only hope, 
(All the times I've tried) 
        Bb  
My only peace, 
(To walk away from you) 
        C  
My only joy,
   C7       F  
My only strength, 
(I fall into your abounding grace) 
   F9/E  Dm
My only power, 
         Bb
My only life, 
(And love is where I am) 
     C   F F9/E  
My only love. 


(F F9/E Dm Bb)
I can't run anymore, 
I give myself to you, 
I'm sorry, 
I'm sorry, 
In all my bitterness, 
I ignored, 
All that's real and true, 
All I need is you, 
When night falls on me, 
I'll not close my eyes, 
I'm too alive, 
And you're too strong, 
I can't lie anymore, 
I fall down before you, 
I'm sorry, 
I'm sorry. 

Passagem:
E|-------------------------------------------------------------- |
C|-------------------------------------------------------------- | 
G|------5-----5-----5-----5-----5-------5-----5-----5-----5----- |2x 
D|----5-----5-----5-----5-----5-------5-----5-----5-----5------- | 
A|-------------------------------------------------------------- |
D|--3-----2-----0-----0-----0-----7-8-----5-----7-----8-----7-5- |

Repete Refrão

(Dm  Bb)
Constantly ignoring, 
The pain consuming me, 
But this time it's cut too deep, 
I'll never stray again. 

Repete Refrão
Composição de Amy Lee / Ben Moody / David Hodges
Colaboración y revision:
  • Tiago Teruya
  • Nelinho Filho
1.258 reproducciones
    • ½ Tono
    • A
    • Bb
    • B
    • C
    • Db
    • D
    • Eb
    • E
    • F
    • F#
    • G
    • Ab
  • Adicionar à lista

    0 comentarios

    Ver todos os comentários

    ¿Conseguiste tocar?

    6 Tocaram 0 Ainda não

    Grave um vídeo tocando October e nos envie!

    00:00 / 00:00
    outros vídeos desta música
    repetir qualidade Automático
    Outros vídeos desta música
    00:00 / 00:00
    Automático
    OK