Cifra Club

Tourniquet

Evanescence

Tablatura: Principal (guitarra)
tono: G
[Intro]

E|---------------------------------------------------------------------------------|
B|---------------------------------------------------------------------------------|
G|---------------------------------------------------------------------------------|
D|---2-5----2-4----0----2-5----2-4----2----2-5----2-4----0---7-5-4--4/7--5-4h5-----|
A|----------------------------------------------------------------------------5-7--|
E|-0-----00-----00---00-----00-----00---00-----00-----00---------------------------|

E|-15-14------12-14-15-14--------17-15-14-14/17-15-14h15----------|
B|-------12---------------15--------------------------------15-17-|
G|---------------------------14-----------------------------------|
D|----------------------------------------------------------------|
A|----------------------------------------------------------------|
E|----------------------------------------------------------------\

( E5  G5  A5 )

E5                       G5                A5 
I tried to kill the pain but only brought more
E5                          G5              A5    
I lay dying and I'm pouring crimson regret and betrayal

E5                  G5        A5           
I'm dying, praying, bleeding and screaming
E5                        G5          A5   
Am I too lost to be saved am I too lost?
E5                        G5          A5   
My God, my tourniquet return to me salvation
E5                        G5          A5
My God, my tourniquet return to me salvation
                                                           
(I want to die)

E5                 G5           A5           
Do you remember me lost for so long
E5                           G5             A5   
Will you be on the other side or will you forget me

E5                           G5            A5
My wounds cry for the grave my soul cries for deliverance
E5                  G5              A5
Will I be denied Christ tourniquet my suicide

( E5 G5 A5 )
Composição de Amy Lee / Ben Moody / David Hodges / Rocky Gray
Colaboración y revision:
822 reproducciones
    • ½ Tono
    • A
    • Bb
    • B
    • C
    • Db
    • D
    • Eb
    • E
    • F
    • F#
    • G
    • Ab
  • Adicionar à lista

    0 comentarios

    Ver todos os comentários

    ¿Conseguiste tocar?

    13 Tocaram 1 Ainda não

    Grave um vídeo tocando Tourniquet e nos envie!

    00:00 / 00:00
    outros vídeos desta música
    repetir qualidade Automático
    Outros vídeos desta música
    00:00 / 00:00
    Automático
    OK