Cifra Club

Heroin Girl

Everclear

Cifrado: Versão 4 (guitarra y guitarra eléctrica)
Selo Cifra Club: esta cifra foi revisada para atender aos critérios oficiais da nossa Equipe de Qualidade.
tono: Bm
E|------------------------------------------------------------------------|

Intro:
gtr.1
E|-------------------------------------------------------------|
B|-------------------------------------------------------------|
G|----11\------------------------------------------------------|
D|----12\------------------------------------------------------|
A|----12\----5--5--5--5--5--5--5--5---5--5--5--5--5--5--5--5---|
E|----10\----3--3--3--3--3--3--3--3---3--3--3--3--3--3--3--3---|

gtr.2(comes in after gtr.1)
E|------------------------------------------------------|
B|--------------------10\-------------------------------|
G|--------------------11\----4--4--4--4--4--4--4--4-----|
D|--------------------12\----5--5--5--5--5--5--5--5-----|
A|------------------------------------------------------|
E|------------------------------------------------------|

gtrs.1&2
E|---------2-----------0-----------------2----------0-------------|
B|------------2-----------0-----0---2-------2---------------------|
G|----3----------------------3----------------------------4--4--4-|
D|----4-----------4-----------------4-----------4---------5--5--5-|
A|----4---------------------------------------------------5--5--5-|
E|----------------------------------------------------------------|
(repeat 3x)

play this at the end of the third time, segue to verse
E|----------0-----------0-------------------|
B|-------------2----------------------------|
G|-----------------4-------------4--4--4----|
D|----4--------------------------5--5--5----|
A|-------------------------------5--5--5----|
E|-------------------------------3--3--3----|

Verses:
E|-------------------------------------------------------| r
B|--------------7--7--------6--6---------7--7------------|
G|----4--3--x---7--7--6--6--6--6--3--3---7--7--6--6--4---| p
D|----5--4--x---7--7--7--7--6--6--4--4---7--7--7--7--5---|
A|----5--4--x---5--5--7--7--4--4--4--4---5--5--7--7--5---|
E|----3--2--x---5--5--5--5--4--4--2--2---5--5--5--5--3---| t

Chorus:
E|----------------------------------------------------------------------------------------|
B|----7---7--7--7--7--7/9--9--9---9--9--9---------7--7--------6------------7--7-----------|
G|----7---7--7--7--7--7/9--9--9---9--9--9---3--3--7--7--6--6--6------3--3--7--7--6--6--6--|
D|----7---7--7--7--7--7/9--9--9---9--9--9---4--4--7--7--7--7--6------4--4--7--7--7--7--7-|
A|----5---5--5--5--5--5/7--7--7---7--7--7---4--4--5--5--7--7--4---2--4--4--5--5--7--7--7--|
E|----5---5--5--5--5--5/7--7--7---7--7--7---2--2--5--5--5--5--4---0--2--2--5--5--5--5--5--|
(repeat, then back to verse chords)

Interlude:
(gtrs.1&2)
E|------------------------------------------------------------------|
B|------------------------------------------------------7--7--------|
G|---4--3--3--1--1--3--3-----3--3--1--1--3--3-----6--6--7--7--6--6--|
D|---5--4--4--2--2--4--4-----4--4--2--2--4--4-----7--7--7--7--7--7--|
A|---5--4--4--2--2--4--4-----4--4--2--2--4--4-----7--7--5--5--7--7--|
E|---3--2--2--0--0--2--2-----2--2--0--0--2--2-----5--5--5--5--5--5--|

(int. cont.)
E|---------------------------|
B|----7--7--6--6--5--5-------|
G|----8--8--7--7--6--6-------| repeat interlude
D|----9--9--8--8--7--7-------| on 2nd time, gtr. 3 plays the intro lead
A|----9--9--8--8--7--7-------|
E|----7--7--5--5--5--5--0----|

play the interlude a 3rd time and end with-
E|------------------------------------|
B|------------------------------------|
G|----\4---8--8--7--7--6--6--1--1-----|
D|----\5---9--9--8--8--7--7--2--2-----|
A|----\5---9--9--8--8--7--7--2--2-----|
E|----\3---7--7--6--6--5--5--0--0-----|

Solo:
(most of these parts are played a little longer than shown)
E|---------------------------------------------------------------------|
B|----14--14-------14------14--14---------------12--12----------11/14--|
G|----14--14-------14--14--14--14--14--14--14\--12--12--11--11--11/14--|
D|-------------16------------------------------------------------------|

(solo cont.)
E|-----------------------------------------------------------------------|
B|----15--14--14------11--11-----9--------9--9---------14--14--14--------|
G|----14--14--14\-11--11--11\-9--9--9--9--9--9--9--9---14--14--14--------|
D|-----------------------------------------------------------------------|

(cont.)
E|----------------------------------------14----------14--14--17--17---|
B|----17--17---17--17-----14--13------14------17--17--16--16--16--16---|
G|----16--16b--16--16b----14--13/15------------------------------------|
D|---------------------------------------------------------------------|

end:
E|-----------------------|
B|-----------------------|
G|------4---3--3---------|
D|------5---4--4---------|
A|------5---4--4---------|
E|------3---2--2---------|

I used to know a girl
she had two pierced nipples and a black tatoo
we'd drink that Mexican beer
we'd live on Mexican food
yes, I wish I could go back
yes, back in time

Esther used to be the kind of girl
that you would never leave
She'd do anything to give me what I need
for my disease
She'd do anything
I can hear them talking in the real world
but they don't understand
that I'm happy in hell with my Heroin girl

I am losing myself in a white-trash hell
Lost inside a Heroin girl
They found her out in the fields
about a mile from home
Her face was warm from the sun
but her body was cold
I heard a policeman say
Just another overdose
just another overdose!

Esther used to be the kind of lover
you would never leave
She'd do anything to give me what I need
for my disease
She would do anything
Otros videos de esta canción
    0 exhibiciones
      • ½ Tono
      • Am
      • Bbm
      • Bm
      • Cm
      • C#m
      • Dm
      • Ebm
      • Em
      • Fm
      • F#m
      • Gm
      • G#m
    • Agregar a la lista

    Afinação da cifra

    Afinador online

      Ops (: Contenido disponible solo en portugués.
      OK