Cifra Club

Volvo Driving Soccer Mom

Everclear

Cifrado: Principal (guitarra y guitarra eléctrica)
Selo Cifra Club: esta cifra foi revisada para atender aos critérios oficiais da nossa Equipe de Qualidade.
tono: C
Intro

   Guitar 1 (Art)
E|-------------------------------------------------|
B|-------------------------------------------------|
G|-------------------------------------------------|
D|--10-10-------10-10-------10-10-------10-10------|
A|--10-10-------10-10-------10-10-------10-10------|
E|--8--8--------8--8--------8--8--------8--8-------|
     C           C            C          C
         na na        na na       na na       na na

   Guitar 1 (Art)
E|-------------------------------------|
B|-------------------------------------|
G|-------------------------------------|
D|--10-10-------10-10-X-X---10-10-X-X--|
A|--10-10-------10-10-X-X---10-10-X-X--|
E|--8--8--------8--8--X-X---8--8--X-X--|
     C           C           C
            You know I used to be a bad girl

   Guitar 1 (Art)
E|-------------------------------------------|
B|-------------------------------------------|
G|-------------------------------------------|
D|--7-7-x-x---5-5-x-x---3-3-x-x---10-10-x-x--|
A|--7-7-x-x---5-5-x-x---3-3-x-x---10-10-X-X--|
E|--5-5-x-x---3-3-x-x---1-1-x-x---8--8--X-X--|
     A         G         F         C
           I got busy in the bathroom at my high school

   Guitar 2 (Alessondro) Lead Fill
E|-----8-12-8----8-12-8----8-12-8----8-12-8--|
B|-------------------------------------------|
G|-------------------------------------------|
D|-------------------------------------------|
A|-------------------------------------------|
E|-------------------------------------------|
       (------------Palm Mute--------------)

   Guitar 1 (Art)
E|-------------------------------------------|
B|-------------------------------------------|
G|-------------------------------------------|
D|--7-7-x-x---5-5-x-x---3-3-x-x---10-10-x-x--|
A|--7-7-x-x---5-5-x-x---3-3-x-x---10-10-X-X--|
E|--5-5-x-x---3-3-x-x---1-1-x-x---8--8--X-X--|
     A         G         F         C
    prom                              I used to

   Guitar 2 (Alessondro) Lead Fill
E|-----8-12-8----8-12-8----8-12-8----8-12-8--|
B|-------------------------------------------|
G|-------------------------------------------|
D|-------------------------------------------|
A|-------------------------------------------|
E|-------------------------------------------|
       (------------Palm Mute-------------)

   Guitar 1 (Art)
E|-----------------------------------------|
B|-----------------------------------------|
G|-----------------------------------------|
D|--7-7-x-x---5-5-x-x---3-3-x-x---2-2-2-2--|
A|--7-7-x-x---5-5-x-x---3-3-x-x---2-2-2-2--|
E|--5-5-x-x---3-3-x-x---1-1-x-x---0-0-0-0--|
     A         G         F          Em
                                (Palm Mute)
   be a dancer at the local strip club

   Guitar 2 (Alessondro) Lead Fill
E|-----8-12-8----8-12-8----8-12-8--|
B|---------------------------------|
G|---------------------------------|
D|---------------------------------|
A|---------------------------------|
E|---------------------------------|
       (-------Palm Mute--------)


   Guitar 1 (Art)
E|-----------------------------------|
B|-----------------------------------|
G|-----------------------------------|
D|--2-2/-3-3-3-3/-5-5-5-5-----10-10--|
A|--2-2/-3-3-3-3/-5-5-5-5-----10-10--|
E|--0-0/-1-1-1-1/-3-3-3-3-----8--8---|
     Em     F        G          C
    (------Palm Mute-----)
    But now I know my right wing from my wrong

   Guitar 2 (Alessondro) Lead Fill
E|----------------------8-12-8----8-12-8--|
B|----------------------------------------|
G|----------------------------------------|
D|----------------------------------------|
A|----------------------------------------|
E|----------------------------------------|
                        (---Palm Mute---)

   Guitar 1 (Art)
E|-------------------------------|
B|-------------------------------|
G|-------------------------------|
D|--7-7-x-x---5-5-x-x---3-3-x-x--|
A|--7-7-x-x---5-5-x-x---3-3-x-x--|
E|--5-5-x-x---3-3-x-x---1-1-x-x--|
     A         G         F

   Guitar 2 (Alessondro) Lead Fill
E|-----8-12-8----8-12-8----8-12-8--|
B|---------------------------------|
G|---------------------------------|
D|---------------------------------|
A|---------------------------------|
E|---------------------------------|
       (-------Palm Mute--------)

Main verse

   Guitar 1 (Art)
E|-------------------------------------------|
B|-------------------------------------------|
G|-------------------------------------------|
D|--10-10-X-X---7-7-x-x---5-5-x-x---3-3-x-x--|
A|--10-10-X-X---7-7-x-x---5-5-x-x---3-3-x-x--|
E|--8--8--X-X---5-5-x-x---3-3-x-x---1-1-x-x--|
     C           A         G         F
        You know I used to be a bad girl

   Guitar 2 (Alessondro) Lead Fill
E|--------8-12-8----8-12-8----8-12-8----8-12-8--|
B|----------------------------------------------|
G|----------------------------------------------|
D|----------------------------------------------|
A|----------------------------------------------|
E|----------------------------------------------|
          (------------Palm Mute-------------)


   Guitar 1 (Art)
E|-------------------------------------------|
B|-------------------------------------------|
G|-------------------------------------------|
D|--10-10-X-X---7-7-x-x---5-5-x-x---3-3-x-x--|
A|--10-10-X-X---7-7-x-x---5-5-x-x---3-3-x-x--|
E|--8--8--X-X---5-5-x-x---3-3-x-x---1-1-x-x--|
     C           A         G         F
         Had a threesome with my sister and her boyfriend Tom

   Guitar 2 (Alessondro) Lead Fill
E|--------8-12-8----8-12-8----8-12-8----8-12-8--|
B|----------------------------------------------|
G|----------------------------------------------|
D|----------------------------------------------|
A|----------------------------------------------|
E|----------------------------------------------|
          (------------Palm Mute-------------)

   Guitar 1 (Art)
E|-------------------------------------------|
B|-------------------------------------------|
G|-------------------------------------------|
D|--10-10-X-X---7-7-x-x---5-5-x-x---3-3-x-x--|
A|--10-10-X-X---7-7-x-x---5-5-x-x---3-3-x-x--|
E|--8--8--X-X---5-5-x-x---3-3-x-x---1-1-x-x--|
     C           A         G         F
          Yeah I used to be a real wild child

   Guitar 2 (Alessondro) Lead Fill
E|--------8-12-8----8-12-8----8-12-8----8-12-8--|
B|----------------------------------------------|
G|----------------------------------------------|
D|----------------------------------------------|
A|----------------------------------------------|
E|----------------------------------------------|
          (------------Palm Mute-------------)

Pre-Chorus

   Guitars 1 & 2
E|-------------------------------|
B|-------------------------------|
G|-------------------------------|
D|--2-2-2-2-2-2-3-3-3-3-3-3-5-x--|
A|--2-2-2-2-2-2-3-3-3-3-3-3-5-x--|
E|--0-0-0-0-0-0-1-1-1-1-1-1-3-x--|
    (-------Palm Mute-------)
         F          G
        But now I am a Volvo-driving soccer mom

   Guitars 1 & 2
E|-------------------------------------------|
B|-------------------------------------------|
G|-------------------------------------------|
D|--10-10-X-X---7-7-x-x---5-5-x-x---3-3-x-x--|
A|--10-10-X-X---7-7-x-x---5-5-x-x---3-3-x-x--|
E|--8--8--X-X---5-5-x-x---3-3-x-x---1-1-x-x--|
     C           A         G         F
                            volvo driving soccer mom
           Na-na     na-na     na-na     na-na

   Guitars 1 & 2
E|-------------------------------------------|
B|-------------------------------------------|
G|-------------------------------------------|
D|--10-10-X-X---7-7-x-x---5-5-x-x---3-3-x-x--|
A|--10-10-X-X---7-7-x-x---5-5-x-x---3-3-x-x--|
E|--8--8--X-X---5-5-x-x---3-3-x-x---1-1-x-x--|
     C           A         G         F
           Na-na     na-na     na-na     na-na

Main verse 2

   Guitar 1 (Art)
E|-------------------------------------------|
B|-------------------------------------------|
G|-------------------------------------------|
D|--10-10-X-X---7-7-x-x---5-5-x-x---3-3-x-x--|
A|--10-10-X-X---7-7-x-x---5-5-x-x---3-3-x-x--|
E|--8--8--X-X---5-5-x-x---3-3-x-x---1-1-x-x--|
     C           A         G         F
          Yeah I used to be a bad girl

   Guitar 2 (Alessondro) Lead Fill
E|--------8-12-8----8-12-8----8-12-8----8-12-8--|
B|----------------------------------------------|
G|----------------------------------------------|
D|----------------------------------------------|
A|----------------------------------------------|
E|----------------------------------------------|
          (------------Palm Mute-------------)


   Guitar 1 (Art)
E|-------------------------------------------|
B|-------------------------------------------|
G|-------------------------------------------|
D|--10-10-X-X---7-7-x-x---5-5-x-x---3-3-x-x--|
A|--10-10-X-X---7-7-x-x---5-5-x-x---3-3-x-x--|
E|--8--8--X-X---5-5-x-x---3-3-x-x---1-1-x-x--|
     C           A         G         F
         I got busted for possesion of my wizard shaped bong

   Guitar 2 (Alessondro) Lead Fill
E|--------8-12-8----8-12-8----8-12-8----8-12-8--|
B|----------------------------------------------|
G|----------------------------------------------|
D|----------------------------------------------|
A|----------------------------------------------|
E|----------------------------------------------|
          (------------Palm Mute-------------)

   Guitar 1 (Art)
E|-------------------------------------------|
B|-------------------------------------------|
G|-------------------------------------------|
D|--10-10-X-X---7-7-x-x---5-5-x-x---3-3-x-x--|
A|--10-10-X-X---7-7-x-x---5-5-x-x---3-3-x-x--|
E|--8--8--X-X---5-5-x-x---3-3-x-x---1-1-x-x--|
     C           A         G         F
          Yeah I love to do the things they tell me not to do

   Guitar 2 (Alessondro) Lead Fill
E|--------8-12-8----8-12-8----8-12-8----8-12-8--|
B|----------------------------------------------|
G|----------------------------------------------|
D|----------------------------------------------|
A|----------------------------------------------|
E|----------------------------------------------|
          (------------Palm Mute-------------)

   Guitar 1 (Art)
E|-------------------------------------------|
B|-------------------------------------------|
G|-------------------------------------------|
D|--10-10-X-X---7-7-x-x---5-5-x-x---3-3-x-x--|
A|--10-10-X-X---7-7-x-x---5-5-x-x---3-3-x-x--|
E|--8--8--X-X---5-5-x-x---3-3-x-x---1-1-x-x--|
     C           A         G         F
          But now I'm different, now I sing a new song

   Guitar 2 (Alessondro) Lead Fill
E|--------8-12-8----8-12-8----8-12-8----8-12-8--|
B|----------------------------------------------|
G|----------------------------------------------|
D|----------------------------------------------|
A|----------------------------------------------|
E|----------------------------------------------|
          (------------Palm Mute-------------)

   Guitar 1 (Art)
E|-------------------------------------------|
B|-------------------------------------------|
G|-------------------------------------------|
D|--10-10-X-X---7-7-x-x---5-5-x-x---3-3-x-x--|
A|--10-10-X-X---7-7-x-x---5-5-x-x---3-3-x-x--|
E|--8--8--X-X---5-5-x-x---3-3-x-x---1-1-x-x--|
     C           A         G         F
          Yeah I used to be a bad girl

   Guitar 2 (Alessondro) Lead Fill
E|--------8-12-8----8-12-8----8-12-8----8-12-8--|
B|----------------------------------------------|
G|----------------------------------------------|
D|----------------------------------------------|
A|----------------------------------------------|
E|----------------------------------------------|
          (------------Palm Mute-------------)

   Guitar 1 (Art)
E|-------------------------------------------|
B|-------------------------------------------|
G|-------------------------------------------|
D|--10-10-X-X---7-7-x-x---5-5-x-x---3-3-x-x--|
A|--10-10-X-X---7-7-x-x---5-5-x-x---3-3-x-x--|
E|--8--8--X-X---5-5-x-x---3-3-x-x---1-1-x-x--|
     C           A         G         F
          I got gang banged in the bathroom at my highschool prom

   Guitar 2 (Alessondro) Lead Fill
E|--------8-12-8----8-12-8----8-12-8----8-12-8--|
B|----------------------------------------------|
G|----------------------------------------------|
D|----------------------------------------------|
A|----------------------------------------------|
E|----------------------------------------------|
          (------------Palm Mute-------------)

  Guitar 1 (Art)
E|-------------------------------------------|
B|-------------------------------------------|
G|-------------------------------------------|
D|--10-10-X-X---7-7-x-x---5-5-x-x---3-3-x-x--|
A|--10-10-X-X---7-7-x-x---5-5-x-x---3-3-x-x--|
E|--8--8--X-X---5-5-x-x---3-3-x-x---1-1-x-x--|
     C           A         G         F
          Yeah I used to be a real wild child

   Guitar 2 (Alessondro) Lead Fill
E|--------8-12-8----8-12-8----8-12-8----8-12-8--|
B|----------------------------------------------|
G|----------------------------------------------|
D|----------------------------------------------|
A|----------------------------------------------|
E|----------------------------------------------|
          (------------Palm Mute-------------)

Pre-Chorus

   Guitars 1 & 2
E|-------------------------------|
B|-------------------------------|
G|-------------------------------|
D|--2-2-2-2-2-2-3-3-3-3-3-3-5-x--|
A|--2-2-2-2-2-2-3-3-3-3-3-3-5-x--|
E|--0-0-0-0-0-0-1-1-1-1-1-1-3-x--|
    (-------Palm Mute-------)
         F          G
        But now I am a Volvo-driving soccer mom

Chorus

   Guitars 1 & 2
E|-------------------------------------------|
B|-------------------------------------------|
G|-------------------------------------------|
D|--10-10-X-X---7-7-x-x---5-5-x-x---3-3-x-x--|
A|--10-10-X-X---7-7-x-x---5-5-x-x---3-3-x-x--|
E|--8--8--X-X---5-5-x-x---3-3-x-x---1-1-x-x--|
     C           A         G         F
                            volvo driving soccer mom
           Na-na     na-na     na-na     na-na

   Guitars 1 & 2
E|-------------------------------------------|
B|-------------------------------------------|
G|-------------------------------------------|
D|--10-10-X-X---7-7-x-x---5-5-x-x---3-3-x-x--|
A|--10-10-X-X---7-7-x-x---5-5-x-x---3-3-x-x--|
E|--8--8--X-X---5-5-x-x---3-3-x-x---1-1-x-x--|
     C           A         G         F
                            volvo driving soccer mom
           Na-na     na-na     na-na     na-na

  Guitars 1 & 2
E|-------------------------------------------|
B|-------------------------------------------|
G|-------------------------------------------|
D|--10-10-X-X---7-7-x-x---5-5-x-x---3-3-x-x--|
A|--10-10-X-X---7-7-x-x---5-5-x-x---3-3-x-x--|
E|--8--8--X-X---5-5-x-x---3-3-x-x---1-1-x-x--|
     C           A         G         F
                            volvo driving soccer mom
           Na-na     na-na     na-na     na-na

   Guitars 1 & 2
E|-------------------------------------------|
B|-------------------------------------------|
G|-------------------------------------------|
D|--10-10-X-X---7-7-x-x---5-5-x-x---3-3-x-x--|
A|--10-10-X-X---7-7-x-x---5-5-x-x---3-3-x-x--|
E|--8--8--X-X---5-5-x-x---3-3-x-x---1-1-x-x--|
     C           A         G         F
                            volvo driving soccer mom
           Na-na     na-na     na-na     na-na

Outro

   Guitar 1 (Art)
E|---------------------------------------------------|
B|---------------------------------------------------|
G|--------------------------10-10-10-10-10-10-10-10--|
D|--10-10-10-10-10-10-10-10-10-10-10-10-10-10-10-10--|
A|--10-10-10-10-10-10-10-10-8--8--8--8--8--8--8--8---|
E|--8--8--8--8--8--8--8--8---------------------------|
    (-----------------Palm Muted-------------------)
              C                       F

   Guitar 1 (Art)
E|-------------------------------------------|
B|-------------------------------------------|
G|--7-7-7-7-7-7-7-7-10-10-10-10-10-10-10-10--|
D|--7-7-7-7-7-7-7-7-10-10-10-10-10-10-10-10--|
A|--5-5-5-5-5-5-5-5-8--8--8--8--8--8--8--8---|
E|-------------------------------------------|
    (--------------Palm Muted--------------)
           D                  F

   Guitar 1 (Art)
E|---------------------------------------------------|
B|---------------------------------------------------|
G|--------------------------10-10-10-10-10-10-10-10--|
D|--10-10-10-10-10-10-10-10-10-10-10-10-10-10-10-10--|
A|--10-10-10-10-10-10-10-10-8--8--8--8--8--8--8--8---|
E|--8--8--8--8--8--8--8--8---------------------------|
    (-----------------Palm Muted-------------------)
              C                       F
               where do all the porn stars go ?

   Guitar 1 (Art)
E|-------------------------------------------|
B|-------------------------------------------|
G|--7-7-7-7-7-7-7-7-10-10-10-10-10-10-10-10--|
D|--7-7-7-7-7-7-7-7-10-10-10-10-10-10-10-10--|
A|--5-5-5-5-5-5-5-5-8--8--8--8--8--8--8--8---|
E|-------------------------------------------|
    (--------------Palm Muted--------------)
           D                  F
               when the lights go down

   Guitar 1 (Art)
E|---------------------------------------------------|
B|---------------------------------------------------|
G|--------------------------10-10-10-10-10-10-10-10--|
D|--10-10-10-10-10-10-10-10-10-10-10-10-10-10-10-10--|
A|--10-10-10-10-10-10-10-10-8--8--8--8--8--8--8--8---|
E|--8--8--8--8--8--8--8--8---------------------------|
    (-----------------Palm Muted-------------------)
              C                       F
           I wonder where all the porn stars go

   Guitar 1 (Art)
E|-------------------------------------------|
B|-------------------------------------------|
G|--7-7-7-7-7-7-7-7-10-10-10-10-10-10-10-10--|
D|--7-7-7-7-7-7-7-7-10-10-10-10-10-10-10-10--|
A|--5-5-5-5-5-5-5-5-8--8--8--8--8--8--8--8---|
E|-------------------------------------------|
    (--------------Palm Muted--------------)
           D                  F
          when you need one they are never around

   Guitars 1 & 2
E|---------------------------------------------------|
B|---------------------------------------------------|
G|--------------------------10-10-10-10-10-10-10-10--|
D|--10-10-10-10-10-10-10-10-10-10-10-10-10-10-10-10--|
A|--10-10-10-10-10-10-10-10-8--8--8--8--8--8--8--8---|
E|--8--8--8--8--8--8--8--8---------------------------|
              C                       F
           heard they moved down to the suburbs

   Guitars 1 & 2
E|-------------------------------------------|
B|-------------------------------------------|
G|--7-7-7-7-7-7-7-7-10-10-10-10-10-10-10-10--|
D|--7-7-7-7-7-7-7-7-10-10-10-10-10-10-10-10--|
A|--5-5-5-5-5-5-5-5-8--8--8--8--8--8--8--8---|
E|-------------------------------------------|
           D                  F
      now their blonde bland middle class republican wives

   Guitars 1 & 2
E|---------------------------------------------------|
B|---------------------------------------------------|
G|--------------------------10-10-10-10-10-10-10-10--|
D|--10-10-10-10-10-10-10-10-10-10-10-10-10-10-10-10--|
A|--10-10-10-10-10-10-10-10-8--8--8--8--8--8--8--8---|
E|--8--8--8--8--8--8--8--8---------------------------|
              C                       F
      they got blonde bland middle class republican children

   Guitars 1 & 2
E|-------------------------------------------|
B|-------------------------------------------|
G|--7-7-7-7-7-7-7-7-10-10-10-10-10-10-10-10--|
D|--7-7-7-7-7-7-7-7-10-10-10-10-10-10-10-10--|
A|--5-5-5-5-5-5-5-5-8--8--8--8--8--8--8--8---|
E|-------------------------------------------|
           D                  F
     and blonde bland middle class republican lifes

   Guitars 1 & 2
E|---------------------------------------------------|
B|---------------------------------------------------|
G|--------------------------10-10-X--X--10-10-X--X---|
D|--10-10-X--X--10-10-X--X--10-10-X--X--10-10-X--X---|
A|--10-10-X--X--10-10-X--X--8--8--X--X--8--8--X--X---|
E|--8--8--X--X--8--8--X--X---------------------------|
      C          c           F           F
             where do all the porn stars go ?

   Guitars 1 & 2
E|-------------------------------------------|
B|-------------------------------------------|
G|--7-7-X-X-7-7-X-X-10-10-X--X--10-10-X--X---|
D|--7-7-X-X-7-7-X-X-10-10-X--X--10-10-X--X---|
A|--5-5-X-X-5-5-X-X-8--8--X--X--8--8--X--X---|
E|-------------------------------------------|
     D       d       F           F
              when the lights go down

   Guitars 1 & 2
E|---------------------------------------------------|
B|---------------------------------------------------|
G|--------------------------10-10-X--X--10-10-X--X---|
D|--10-10-X--X--10-10-X--X--10-10-X--X--10-10-X--X---|
A|--10-10-X--X--10-10-X--X--8--8--X--X--8--8--X--X---|
E|--8--8--X--X--8--8--X--X---------------------------|
      C          c           F           F
              i wonder where the porn stars go

   Guitars 1 & 2
E|--------------------------|
B|--------------------------|
G|--7-7-7-7-7-7-7-7--10-10--|
D|--7-7-7-7-7-7-7-7--10-10--|
A|--5-5-5-5-5-5-5-5--8--8---|
E|--------------------------|
    (--Palm Mute--)
          D           F
     they become volvo drivin soccer moms


Chorus

   Guitars 1 & 2
E|-------------------------------------------|
B|-------------------------------------------|
G|-------------------------------------------|
D|--10-10-X-X---7-7-x-x---5-5-x-x---3-3-x-x--|
A|--10-10-X-X---7-7-x-x---5-5-x-x---3-3-x-x--|
E|--8--8--X-X---5-5-x-x---3-3-x-x---1-1-x-x--|
     C           A         G         F
                            volvo driving soccer mom
           Na-na     na-na     na-na     na-na

   Guitars 1 & 2
E|-------------------------------------------|
B|-------------------------------------------|
G|-------------------------------------------|
D|--10-10-X-X---7-7-x-x---5-5-x-x---3-3-x-x--|
A|--10-10-X-X---7-7-x-x---5-5-x-x---3-3-x-x--|
E|--8--8--X-X---5-5-x-x---3-3-x-x---1-1-x-x--|
     C           A         G         F
                            volvo driving soccer mom
           Na-na     na-na     na-na     na-na

  Guitars 1 & 2
E|-------------------------------------------|
B|-------------------------------------------|
G|-------------------------------------------|
D|--10-10-X-X---7-7-x-x---5-5-x-x---3-3-x-x--|
A|--10-10-X-X---7-7-x-x---5-5-x-x---3-3-x-x--|
E|--8--8--X-X---5-5-x-x---3-3-x-x---1-1-x-x--|
     C           A         G         F
                            volvo driving soccer mom
           Na-na     na-na     na-na     na-na

   Guitars 1 & 2
E|-------------------------------------------|
B|-------------------------------------------|
G|-------------------------------------------|
D|--10-10-X-X---7-7-x-x---5-5-x-x---3-3-x-x--|
A|--10-10-X-X---7-7-x-x---5-5-x-x---3-3-x-x--|
E|--8--8--X-X---5-5-x-x---3-3-x-x---1-1-x-x--|
     C           A         G         F
                            volvo driving soccer mom
           Na-na     na-na     na-na     na-na

   Guitar 1 (Art)
E|----------------------------------------------------|
B|----------------------------------------------------|
G|----------------------------------------------------|
D|--10-10---------10-10---------10-10---------10-10~--|
A|--10-10---------10-10---------10-10---------10-10~--|
E|--8--8----------8--8----------8--8----------8--8~---|
     C              C             C            C
                                         Volvo Driving Soccer Mom
Otros videos de esta canción
    4 exhibiciones
      • ½ Tono
      • A
      • Bb
      • B
      • C
      • Db
      • D
      • Eb
      • E
      • F
      • F#
      • G
      • Ab
    • Agregar a la lista

    Afinação da cifra

    Afinador online

      Ops (: Contenido disponible solo en portugués.
      OK