Cifra Club

White Men In Black Suits

Everclear

Cifrado: Principal (guitarra y guitarra eléctrica)
Selo Cifra Club: esta cifra foi revisada para atender aos critérios oficiais da nossa Equipe de Qualidade.
tono: Gm
E|-------------------------------------------------------|
B|-------------------------------------------------------|
G|-----10--10--10--10--10--10--10--10--10--10--10--10--10|
D|-----10--10--10--10--10--10--10--10--10--10--10--10--10|
A|------8---8---8---8---8---8---8---8---8---8---8---8---8|
E|-------------------------------------------------------|

                IT CE S THAT CHORD FOR A WHILE, THEN THE VERSE KICKS IN LIKE:
E|------------------------------------------------------|
B|------------------------------------------------------|
G|--7--7--7--7--5--5--5--5--10--10--10--10--5--5--5--5--|
D|--7--7--7--7--5--5--5--5--10--10--10--10--5--5--5--5--|
A|--5--5--5--5--3--3--3--3---8---8---8---8--3--3--3--3--|
E|------------------------------------------------------|

IT KINDA CHANGES UP HED :
WATCHING ALL THE PD TTY PEOPLE C ING LOTS OF OTHER THINGS
E|-----------------------------------------------------------------|
B|-----------------------------------------------------------------|
G|--7--7--7--7--5--5--5--5--10--10--10--10--10--10--10--10---------|
D|--7--7--7--7--5--5--5--5--10--10--10--10--10--10--10--10---------|
A|--5--5--5--5--3--3--3--3---8---8---8---8---8---8---8---8---------|
E|-----------------------------------------------------------------|

PDC HORUS ( I THINK IT'S GETTING BETTER .......... )
E|------------------------------------------------------------------------------------------------|
B|------------------------------------------------------------------------------------------------|
G|--------------------------------------------------7--7--7--7--7--7--7--7--8--8--8--8--8--8--8--8|
D|--7--7--7--7--7--7--7--7--8--8--8--8--8--8--8--8--7--7--7--7--7--7--7--7--8--8--8--8--8--8--8--8|
A|--7--7--7--7--7--7--7--7--8--8--8--8--8--8--8--8--5--5--5--5--5--5--5--5--6--6--6--6--6--6--6--6|
E|--5--5--5--5--5--5--5--5--6--6--6--6--6--6--6--6------------------------------------------------|

I COULD GIVE A DAMN FOR WHAT THOSE PEOPLE SAY
E|------------------------------------------------------------------------------|
B|------------------------------------------------------------------------------|
G|------------------------------------------------------------------------------|
D|--7--7--7--7--7--7--7--7--8--8--8--8------------------------------------------|
A|--5--5--5--5--5--5--5--5--6--6--6--6------------------------------------------|

AHHHHHHHHH
E|-------------------------------------------------------------------------------|
B|-------------------------------------------------------------------------------|
G|--------------------------------------------------10-10-10-10-10-10-10-10-10---|
D|--3--3--3--3--3--3--3--3--3--3--3--3--3--3--3--3--10-10-10-10-10-10-10-10-10---|
A|--3--3--3--3--3--3--3--3--3--3--3--3--3--3--3--3--8--8--8--8--8--8--8--8--8----|
E|--1--1--1--1--1--1--1--1--1--1--1--1--1--1--1--1-------------------------------|

NOW PA Y VERSE RIFF AGAIN

NOW PA Y PD-C HORUS AGAIN

CHORUS
E|----------------------------------------------------------------------------------------------|
B|----------------------------------------------------------------------------------------------|
G|--------------5--5--5--5--------------------------10--10--10--10---5--5--5--5-----------------|
D|--3--3--3--3--5--5--5--5--7--7--7--7--8--8--8--8--10--10--10--10---5--5--5--5--7--7--7--7--8--|
A|--3--3--3--3--3--3--3--3--7--7--7--7--8--8--8--8---8---8---8---8---3--3--3--3--7--7--7--7--8--|
E|--1--1--1--1--------------5--5--5--5--6--6--6--6-------------------------------5--5--5--5--6--|

E|----------------------------------------------------------------------------------------------|
B|----------------------------------------------------------------------------------------------|
G|-----------10--10--10--10---5--5--5--5--------------------------10--10--10--10---5--5--5--5---|
D|--8--8--8--10--10--10--10---5--5--5--5--7--7--7--7--8--8--8--8--10--10--10--10---5--5--5--5---|
A|--8--8--8---8---8---8---8---3--3--3--3--7--7--7--7--8--8--8--8---8---8---8---8---3--3--3--3---|
E|--6--6--6-------------------------------5--5--5--5--6--6--6--6--------------------------------|

E|--------------------------------------------------------------------------|
B|--------------------------------------------------------------------------|
G|--------------------------------------------------------------------------|
D|--7--7--7--7--8--8--8--8--3--3--3--3--3--3--3--3--3--3--3--3--3--3--3--3--|
A|--7--7--7--7--8--8--8--8--3--3--3--3--3--3--3--3--3--3--3--3--3--3--3--3--|
E|--5--5--5--5--6--6--6--6--1--1--1--1--1--1--1--1--1--1--1--1--1--1--1--1--|

PA Y VERSE

PA Y PD-C HORUS

PA Y CHORUS

OUTRO
E|-----------------------------------------------------------------------------------------------|
B|-----------------------------------------------------------------------------------------------|
G|-----------------------------------------------------------------------------------------------|
D|--3--3--3--3--3--3--3--3--3--3--3--3--3--3--3--5--5--5--5--5--5--5--5--8--8--8--8--8--8--8--8--|
A|--3--3--3--3--3--3--3--3--3--3--3--3--3--3--3--5--5--5--5--5--5--5--5--8--8--8--8--8--8--8--8--|
E|--1--1--1--1--1--1--1--1--1--1--1--1--1--1--1--3--3--3--3--3--3--3--3--6--6--6--6--6--6--6--6--|
Otros videos de esta canción
    1 exhibiciones
      • ½ Tono
      • Am
      • Bbm
      • Bm
      • Cm
      • C#m
      • Dm
      • Ebm
      • Em
      • Fm
      • F#m
      • Gm
      • G#m
    • Agregar a la lista

    Afinação da cifra

    Afinador online

      Ops (: Contenido disponible solo en portugués.
      OK