Cifra Club

Your Genius Hands

Everclear

Cifrado: Principal (guitarra y guitarra eléctrica)
Selo Cifra Club: esta cifra foi revisada para atender aos critérios oficiais da nossa Equipe de Qualidade.
tono: Bm
Main Riff
E|-----------------------------|
B|-----------------------------|
G|--7--7--7--7---7-7-7-7--7-7--|
D|-----------------------------|
A|--5--5--5--5---5-5-5-5--5-5--|
E|-----------------------------|

Dividing Riff
E|-----------------------------|
B|-----------------------------|
G|--------------7--------------|
D|--9---8---7---7---7---6---5--|
A|--9---8---7---5---7---6---5--|
E|--7---6---5-------5---4---3--|
Otros videos de esta canción
    0 exhibiciones
      • ½ Tono
      • Am
      • Bbm
      • Bm
      • Cm
      • C#m
      • Dm
      • Ebm
      • Em
      • Fm
      • F#m
      • Gm
      • G#m
    • Agregar a la lista

    Afinação da cifra

    Afinador online

      Ops (: Contenido disponible solo en portugués.
      OK