Cifra Club

Sleepin Alone

Everlast

Tab de bajo: Principal
                              White Trash Beautiful

Tabbed By : Halo_130
e-mail:

Tuning: Standard

:10                  Repeat 3 X

G|--2-------2----------------------------------------------------------------|
D|-2-------2-----------------------------------------------------------------|
A|0--323--0--323-320---------------------------------------------------------|
E|---------------------------------------------------------------------------|

:42

G|--0------0------0------0----------0------0---------------------------------|
D|-2------2------2------2----------2------2----------------------------------|
A|0--323-0--323-0--323-0--323-320-0--323-0--323-320--------------------------|
E|---------------------------------------------------------------------------|

1:13

G|--0---0--------------------------------------------------------------------|
D|-2--02---------------------------------------------------------------------|
A|0--3-----------------------------------------------------------------------|
E|---------------------------------------------------------------------------|

1:18

G|--2------2----------2------2-----------------------------------------------|
D|-2------2----------2------2------------------------------------------------|
A|0--323-0--323-320-0--323-0--323--------------------------------------------|
E|---------------------------------------------------------------------------|

1:39

G|--0------0------0------0------0------0----------0--------------------------|
D|-2------2------2------2------2------2----------2---------------------------|
A|0--323-0--323-0--323-0--323-0--323-0--323-320-0--323-----------------------|
E|---------------------------------------------------------------------------|

2:15

G|--0---0--------------------------------------------------------------------|
D|-2--02---------------------------------------------------------------------|
A|0--3-----------------------------------------------------------------------|
E|---------------------------------------------------------------------------|

2:21

G|--2------2----------2------------------------------------------------------|
D|-2------2----------2-----320-----------------------------------------------|
A|0--323-0--323-320-0--323----320--------------------------------------------|
E|---------------------------------------------------------------------------|

2:50

G|------0------0------0------0-----0---0-------------------------------------|
D|-03--2------2------2------2-----2--02--------------------------------------|
A|3---0--323-0--323-0--323-0--23-0--3----------------------------------------|
E|---------------------------------------------------------------------------|

3:18

G|--0------0----------0------0-----------------------------------------------|
D|-2------2----------2------2------------------------------------------------|
A|0--323-0--323-320-0--323-0--323-320----------------------------------------|
E|---------------------------------------------------------------------------|

3:48                      Played to Fade out

G|------2-------2------2-----------------------------------------------------|
D|-----2-------2------2------------------------------------------------------|
A|320-0---323-0--323-0--323--------------------------------------------------|
E|---------------------------------------------------------------------------|


Well there is another one on the board.  You'll have to listen to the song to get the 
timing but I Tabbed this one with the times through the song so you know where your at.

| /  slide up
| \  slide down
| h  hammer-on
| p  pull-off
| ~  vibrato
| +  harmonic
| x  Mute note
===============================================================================
00:00 / 00:00
Otros videos de esta canción
Repetir
Otros videos de esta canción
Compositor no encontrado.
5 vistas

0 comentarios

Ver todos los comentarios

¿Lograste tocar?

0 Tocaron 0 Aún no

¡Graba un video tocando Sleepin Alone y envíanoslo!

00:00 / 00:00
OK