Cifra Club

What Its Like 1

Everlast

Cifrado: Principal (guitarra y guitarra eléctrica)
tono: C
Tabbed by: twist..
Email: *

Tuning: Standard

Intro
e|--------3---1h3p1---------|
B|-----3-------------3p0----|
G|---2----------------------|   x4
D|-0------------------------|
A|--------------------------|
E|--------------------------|

play each chord 3 times, mute on the first 2 xcept for the last chord
e|--1-1-1----0-0-0---0-0-0----1-1h3p3-------------|
B|--3-3-3----1-1-1---1-1-1----3-3-----------------|
G|--2-2-2----2-2-2---0-0-0----2-2-----------------| x 4
D|-----------3-3-3---2-2-2------------------------|
A|-----------0-0-0---3-3-3------------------------|
E|------------------------------------------------|

e|--------1-------------3-----------1---------5----------1---1---1----|
B|----------3-------------5-----------3---------6----------3---3---3--|
G|---0--------------0-----------0---------0----------0----------------|
D|-0---0----------0---0-------0---0-----0---0------0---0--------------|
A|--------------------------------------------------------------------|
E|--------------------------------------------------------------------|

play each chord 3 times, mute on the first 2 xcept for the last chord
e|--1-1-1----0-0-0---0-0-0----1-1h3p3-------------|
B|--3-3-3----1-1-1---1-1-1----3-3-----------------|
G|--2-2-2----2-2-2---0-0-0----2-2-----------------| x 4
D|-----------3-3-3---2-2-2------------------------|
A|-----------0-0-0---3-3-3------------------------|
E|------------------------------------------------|

e|--------3---1h3p1---------|
B|-----3-------------3p0----|
G|---2----------------------|   x6
D|-0------------------------|
A|--------------------------|
E|--------------------------|

e|--------1-------------3-----------1---------5----------1---1---1----|
B|----------3-------------5-----------3---------6----------3---3---3--|
G|---0--------------0-----------0---------0----------0----------------|
D|-0---0----------0---0-------0---0-----0---0------0---0--------------|
A|--------------------------------------------------------------------|
E|--------------------------------------------------------------------|

play each chord 3 times, mute on the first 2 xcept for the last chord
e|--1-1-1----0-0-0---0-0-0----1-1h3p3-------------|
B|--3-3-3----1-1-1---1-1-1----3-3-----------------|
G|--2-2-2----2-2-2---0-0-0----2-2-----------------| x 4
D|-----------3-3-3---2-2-2------------------------|
A|-----------0-0-0---3-3-3------------------------|
E|------------------------------------------------|
00:00 / 00:00
Otros videos de esta canción
Repetir
Otros videos de esta canción
Compositor no encontrado.
30 vistas
    • ½ Tono
    • A
    • Bb
    • B
    • C
    • Db
    • D
    • Eb
    • E
    • F
    • F#
    • G
    • Ab
  • Agregar a la lista

    0 comentarios

    Ver todos los comentarios

    ¿Lograste tocar?

    0 Tocaron 0 Aún no

    ¡Graba un video tocando What Its Like 1 y envíanoslo!

    00:00 / 00:00
    OK