Cifra Club

Devoted To You

The Everly Brothers

Tablatura: Principal (guitarra)
tono: Ab (con acordes en la forma de E) Capotraste na 4ª casa
Intro:
        (electric guitar w/tremolo):

        CAPO IV

        (E)     (B)       (E)     (B7)
         v   v   v   v     v   v   v   v
        -----3-------3---|-----3-------3---
        -1-------0-------|-1-------0-------
        ---0---0---0---0-|---0---0---0---0-
        -2-------0-------|-2-------3-------
        -----------------|-----------------
        -----------------|-----------------

Verse 1:

         E               B7      E
        Darling you can count on me
          E                B7      E
        'Til the sun dries up the sea
        A     Abm       F#m    E
        Until then I'll always be
           A B7 [N.C.]     E
        Devoted        to you

Verse 2:

        I'll be yours through endless time
        I'll adore your charms sublime
        Guess by now you know that I'm
        Devoted   to you

Bridge:

        F#m                 Abm        Dbm
        I'll never hurt you I'll never lie
        F#m        B7    E    E7
        I'll never be untrue
        F#m                 Abm       Dbm
        I'll never give you reason to cry
        F#7               B7
        I'd be unhappy if you were blue

Verse 3:

        Through the years my love will grow
        Like a river it will flow
        It can't die because I'm so
        Devoted   to you

[repeat bridge]

[repeat verse 3]

Coda:

        (electric guitar 1, w/tremolo):

        CAPO IV

        (E)               (B7)    (E)
         v   v   v   v     v   v   v   v
        -----------------|-----------------
        -1---1---1---1---|-0---0---1-------
        ---0---0---0---0-|---0---0---------
        -2---2---2---2---|-3---3---2-------
        -----------------|-----------------
        -----------------|-----------------

        (electric guitar 2, w/tremolo [no capo]):

        (E)               (B7)    (E)
         v   v   v   v     v   v   v   v
        -4---4---7---4---|-2---2---4-------
        -5---5---9---5---|-4---4---5-------
        -----------------|-----------------
        -----------------|-----------------
        -----------------|-----------------
        -----------------|-----------------
Composição de Boudleaux Bryant / Felice & Boudleaux Bryant
Colaboración y revision:
  • Marco Rotta
61 reproducciones
    • ½ Tono
    • A
    • Bb
    • B
    • C
    • Db
    • D
    • Eb
    • E
    • F
    • F#
    • G
    • Ab
  • Adicionar à lista

    0 comentarios

    Ver todos os comentários

    ¿Conseguiste tocar?

    0 Tocaram 0 Ainda não

    Grave um vídeo tocando Devoted To You e nos envie!

    00:00 / 00:00
    outros vídeos desta música
    repetir qualidade Automático
    Outros vídeos desta música
    00:00 / 00:00
    Automático
    OK