Cifra Club

Distant Past

Everything Everything

Cifrado: Principal (guitarra y guitarra eléctrica)
Selo Cifra Club: esta cifra foi revisada para atender aos critérios oficiais da nossa Equipe de Qualidade.
tono: D
E|----------------------------------|
B|----------------------------------|
G|-------------------------4--------|
D|--7-------------4-5--4-5----------|
A|-----5-7----5-7-------------------|
E|----------------------------------|

 [Verse 1]
E|-------------------------|
B|-------------------------|
G|-------------------------|
D|-------------------------|
A|--0-0-0-2-2--------------|
E|--------------0-0-0-3-3--| (repeat 6 times)

A
Drag my tongue across the sand
Em
So happy just to crawl across the land
A
Soon I'll be the best around
Em
I'm gonna keep my plunder underground
A
Hard flesh cold against the rain
Em
Dust billowing around my brazen brain
A
Saw off all my stinking limbs
Em
Blood dripping down my sunken money chin

A
Baby can you leave it in the (distant past)?
Baby can you leave it in the (distant past)?
D
Girl, I'm from the very very (distant past)
Girl, I'm from the very very (distant past)
A
Baby can you leave me in the (distant past)?
Baby can you leave me in the (distant past)?
D
Girl, I wanna take you to the (distant past)
Girl, I wanna take you to the (distant past)

 [Chorus]
E|---12-12-12-12-12-12-12-12-12-12-12-12-12-12-12-12-12-12-12-12--|
B|---12-12-12-14-14-15-15-15-15-15-14-14-14-14-14-15-15-15-15-15--|
G|---12-12-12-12-12-12-12-12-12-12-14-14-14-14-14-12-12-12-12-12--|
D|----------------------------------------------------------------|
A|----------------------------------------------------------------|
E|----------------------------------------------------------------| repeat 4 times

Em                                         A        G
Take me to the distant past, I want to go back
Em                                             A       G
Save me from the distant past, I want this so bad
Em                                         A        G
Take me to the distant past, I want to go back
Em                                             A       G
Save me from the distant past, I want this so bad

 [Verse 2]
E|------------------------------------------------|
B|------------------------------------------------|
G|-------------------------4----------------------|
D|--7-------------4-5--4-5------------------------|
A|-----5-7----5-7---------------------------------|
E|------------------------------------------------|

E|-------------------------|
B|-------------------------|
G|-------------------------|
D|-------------------------|
A|--0-0-0-2-2--------------|
E|--------------0-0-0-3-3--| (repeat 4 times)

A
Two thumbs across the Rubicon
Em
Slack jaw but you'll never be passing it on
A
Plug hole, down the drain you go
Em
Your body never made it past the snow
A
Canine fangs about my throat
Em
You're bleeding over Eden like a goat
A
Tall blade dripping in every field
Em
I'm blooming like a fuming human shield

A
Baby can you leave it in the (distant past)?
Baby can you leave it in the (distant past)?
D
Girl, I'm from the very very (distant past)
Girl, I'm from the very very (distant past)
A
Baby can you leave me in the (distant past)?
Baby can you leave me in the (distant past)?
D
Girl, I wanna take you to the (distant past)
Girl, I wanna take you to the (distant past)

[Chorus]
      Em                            A              G
E|---12-12-12-12-12-12-12-12-12-12-12-12-12-12-12-12-12-12-12-12--|
B|---12-12-12-14-14-15-15-15-15-15-14-14-14-14-14-15-15-15-15-15--|
G|---12-12-12-12-12-12-12-12-12-12-14-14-14-14-14-12-12-12-12-12--|
D|----------------------------------------------------------------|
A|----------------------------------------------------------------|
E|----------------------------------------------------------------| (repeat 4 times)

Em                                         A        G
Take me to the distant past, I want to go back
Em                                             A       G
Save me from the distant past, I want this so bad
Em                                         A        G
Take me to the distant past, I want to go back
Em                                             A       G
Save me from the distant past, I want this so bad

A      Em    A    Em    A     Em
Past, past, past, past, past, past

E|------------------------------------------------|
B|------------------------------------------------|
G|-------------------------4----------------------|
D|--7-------------4-5--4-5------------------------|
A|-----5-7----5-7---------------------------------|
E|------------------------------------------------|

E|---12-12-12-12-12-12-12-12-12-12-12-12-12-12-12-12-12-12-12-12--|
B|---12-12-12-14-14-15-15-15-15-15-14-14-14-14-14-15-15-15-15-15--|
G|---12-12-12-12-12-12-12-12-12-12-14-14-14-14-14-12-12-12-12-12--|
D|----------------------------------------------------------------|
A|----------------------------------------------------------------|
E|----------------------------------------------------------------| repeat 8 times

Em                                         A        G
Take me to the distant past, I want to go back
Em                                             A       G
Save me from the distant past, I want this so bad
Otros videos de esta canción
    14 exhibiciones
      • ½ Tono
      • A
      • Bb
      • B
      • C
      • Db
      • D
      • Eb
      • E
      • F
      • F#
      • G
      • Ab
    • Agregar a la lista

    Afinación de cifrado

    Afinador online

      OK