Cifra Club

It's A Monster

Extreme

Cifrado: Principal (guitarra y guitarra eléctrica)
Selo Cifra Club: esta cifra foi revisada para atender aos critérios oficiais da nossa Equipe de Qualidade.
tono: D
E|--------------------------------------------------------|
B|--------------------------------------------------------|
G|--------------------------------------------------------|
D|---4--4--4--4--4----------------------------------------|
A|---4--4--4--4--4--- play louder, palm muted.......------|
E|---2--2--2--2--2----------------------------------------|

E|--------------------------------------------------------|
B|--------------------------------------------------------|
G|--------------------------------------------------------|
D|--------------------------5--5-5XX--~--~--~~-~~---------|
A|5--5--X-5--X-X-3--3--X-X--3--3-3XX--3--3--33-44---------|
E|3--3--X-3--X-X-1--1--X-X------------1--1--11-22---------|

E|---3----3-----------------------------------------------|
B|---3----3-----------------------------------------------|
G|--------------------------------------------------------|
D|--------------------------5--5-5XX------3~~-------------|
A|5----------X-X-3--3--X-X--3--3-3XX-3h5------5p3\1-------|
E|3----------X-X-1--1--X-X--------------------------------|

E|---3----3-----------------------------------------------|
B|---3----3-----------------------------------------------|
G|--------------------------------------------------------|
D|--------------------------5--5-5XX--~--~--~~-~~---------|
A|5----------X-X-3--3--X-X--3--3-3XX--3--3--33-55---------|
E|3----------X-X-1--1--X-X------------1--1--11-33---------|

E|---3--?------------------3-----------------------------|
B|---3--?------------------3-----------------------------|
G|------?------------------0-----------------------------|
D|------?------------------0-----------------------------|
A|5-----?--33--33--4-4-44--------------------------------|
E|3-----?--11--11--2-2-22--3--\-XX-1--2--3--1-2-3--------|

E|-3------------------------3------------------------------|
B|-3------------------------3------------------------------|
G|-0------------------------0------------------------------|
D|-0---------3--------------0------------------------------|
A|----~~--/5---3p1h3p1h3p1---------------------------------|
E|-3--33--------------------3--\-XX-1--2--3--11-2-3--------|

E|-3--????-------------------------------------------------|
B|-3--????-------------------------------------------------|
G|-0--????-------------------------------------------------|
D|-0--????--------3----------------------------------------|
A|---------~~--/5---3p1h3p1h3p1----------------------------|
E|-3-------33----------------------------------------------|

E|--------------------------------------------------------|
B|--------------------------------------------------------|
G|--------------------------------------------------------|
D|--------------------------------------------------------|
A|-1--2--3--1-2-3-----------------------------------------|
E|--------------------------------------------------------|

E|--------------------------------------------------------|
B|--------------------------------------------------------|
G|--------------------------------------------------------|
D|--------------------------------------------------------|
A|-3--4--5--3-4-5-----------------------------------------|
E|--------------------------------------------------------|

Otros videos de esta canción
    1.523 exhibiciones
      • ½ Tono
      • A
      • Bb
      • B
      • C
      • Db
      • D
      • Eb
      • E
      • F
      • F#
      • G
      • Ab
    • Agregar a la lista

    Afinación de cifrado

    Afinador online

      OK