Cifra Club

Stop The World

Extreme

Cifrado: Principal (guitarra y guitarra eléctrica)
Selo Cifra Club: esta cifra foi revisada para atender aos critérios oficiais da nossa Equipe de Qualidade.
tono: G#m
Intro:

E|-10------9-----3----2-----3--5--7---8-------------| |
B|-10------9-----3----2-----3--5--7---8-------------| |
G|-12-----11-----5----4-----5--7--9--10-------------| |
D|--------------------------------------------------| |
A|--------------------------------------------------| |
E|--------------------------------------------------| |


All the world....
If we forget...
E|-------3-----------------------0------------------| |
B|-----3-------3-------3---------3---------3-1------| |
G|---0-------0---0---0---0-----0---------------0----| |
D|-2-------3-----------------2-----------2-------2--| |
A|-----------------2-------3-------3-2-0------------| |
E|--------------------------------------------------| |

Were it to rain....
It's not too late...
E|-------3-----------------------0------------------| |
B|-----3-------3-------3---------3---------3--2-----| |
G|---0-------0---0---0---0-----0--------------0-----| |
D|-2-------3-----------------2-----------2----2-----| |
A|-----------------2-------3-------3-2-0------------| |
E|--------------------------------------------------| |

If any people bothered.....           Stop the world from.....
Do unto those as you would...
E|-------0-----------0-------0---0-|-------0-----------0-------0---0-| |
B|-------0-----------0-------0---0-|-------0-----------0-------0---0-| |
G|-1--1--1--1--1--1--1--1----1---1-|-1--1--1--1--1--1--1--1----1---1-| |
D|-2--2--2--2--2--2--2--2----2---2-|-2--2--2--2--2--2--2--2----2---2-| |
A|-2--2-----2--2--2-----2----------|-2--2--2--2--2--2--2--2----2---2-| |
E|-0--0-----0--2--2-----2--4---2---|-0--0-----0--2--2-----2--4---2---| |

instead we choose....         Stop the world from.....
We need more feet to walk...
E|-5-5---5-5----5-5--5--5---|-------0-----------0-------0---0-| |
B|-5-5---5-5----5-5--5--5---|-------0-----------0-------0---0-| |
G|-2-2---2-5----2-2--2--5---|-1--1--1--1--1--1--1--1----1---1-| |
D|-2-2---2-2----2-2--2--5---|-2--2--2--2--2--2--2--2----2---2-| |
A|-0-0---0-0----0-0--0--0---|-2--2-----2--2--2-----2----------| |
E|--------------------------|-0--0-----0--2--2-----2--4---2---| |

If nothing's new under the sun.....
E|--------------------------------------------------| |
B|-7---8---10---12----11---10---5~------------------| |
G|-7---7----9---12----10---10---5~------------------| |
D|-7---9---11---12----12---10---5-------------------| |
A|-5---7----9---10----10----8---3-2-3-2-3-----------| |
E|--------------------------------------------------| |


Chorus:

Stop the world  Stop the world  I wanna....
E|-x---------------------4-----x---------------------| |
B|-2---------------------3-----2---------------------| |
G|-2---------------------2-----2---------------------| |
D|-2---------------------2-----2---------------------| |
A|-0---------------------0-----0---------------------| |
E|---------------------------------------------------| |

Stop the world....
E|-----------------------------0------0h2--------------------0--0---| |
B|-----2-------2-------2---------0--------3-----2-------3----0--0---| |
G|-------2-------2-------2-----------2------------2-------4--2--1---| |
D|---2-------2-------2-------------0----------2-------4------2--2---| |
A|-0-------------------------2--------------4-------2--------2--2---| |
E|---------4-------2-------0---------------------------------0--0---| |

Solo-part:
E|--------|-----0--0--|--0--0--0--|--0--0--0--|--0--0--0--| |
B|--6--3--|--5--0--0--|--5--0--0--|--5--0--0--|--5--0--0--| |
G|--5--2--|--4--6--8--|--4--6--8--|--4--6--8--|--4--6--8--| |
D|--4--1--|--2--7--9--|--2--7--9--|--2--7--9--|--2--7--9--| |
A|--5--2--|--4--7--9--|--4--7--9--|--4--7--9--|--4--7--9--| |
E|--------|-----5--7--|-----5--7--|-----5--7--|-----5--7--| |

E|-7--7-7-7--8--7-|-7--7-7-7--8--7-|-7--7-7-7--8--7--5---------------| |
B|-8--8-7-8--8--7-|-8--8-7-8--8--7-|-8--8-7-8--8--7--5-----6---3-----| |
G|-7--7-7-7--8--7-|-7--7-7-7--8--7-|-7--7-7-7--8--7--5-----5---5-----| |
D|-9--9-7-9--8--7-|-9--9-7-9--8--7-|-9--9-7-9--8--7--5-----4---4-----| |
A|-7--7-7-7-------|-7--7-7-7-------|-7--7-7-7--------------5---2-----| |
E|-----------8--7-|-----------8--7-|-----------8--7--5---------------| |

E|-0--0--0--0--0-------------0---------0---0----0---0---0---0---0----| |
B|-0--0--0--0--0-----------3---0-------0---0----2---1---0---0---0----| |
G|-1--0--1--2--1---------1-------1-----1---1---4---4----1---1---1----| |
D|-4--2--4--2--4-------0--------------4---4---2---2----4---4---4-----| |
A|-2--3--2--3--2-----1---------------2---2---0---0----2---2---2------| |
E|-0-----0--0--0---0----------------0---0------------0---0---0-------| |

E|----------------------------------| |
B|-11---12--9-----12-11-----12-9----| |
G|----9-------9---------9--------9--| |
D|--------------9---------9---------| |
A|----------------------------------| |
E|----------------------------------| |

E|-------------------------------------------------------------------| |
B|-11-9--12-11--14-12--15-14--5-3--6-5--8-6--9-8---------------------| |
G|--9-9--11-11--12-12--14-14--3-3--5-5--6-6--8-8---1-1-1-1-1-1-1-1---| |
D|-------------------------------------------------2-2-2-2-2-2-2-2---| |
A|-------------------------------------------------2-2-2-2-2-2-2-2---| |
E|-------------------------------------------------0-0-0-0-0-0-0-0---| |


Chorus (2x):
Stop the world  Stop the world  I wanna....
E|-x---------------------4-----x---------------------| |
B|-2---------------------3-----2---------------------| |
G|-2---------------------2-----2---------------------| |
D|-2---------------------2-----2---------------------| |
A|-0---------------------0-----0---------------------| |
E|---------------------------------------------------| |

Stop the world....
E|-----------------------------0------0h2--------------------0--0---| |
B|-----2-------2-------2---------0--------3-----2-------3----0--0---| |
G|-------2-------2-------2-----------2------------2-------4--2--1---| |
D|---2-------2-------2-------------0----------2-------4------2--2---| |
A|-0-------------------------2--------------4-------2--------2--2---| |
E|---------4-------2-------0---------------------------------0--0---| |

2nd Guitar-solo (2x):
E|-----------------------------0------0h2--------------------0--0---| |
B|-----2-------2-------2---------0--------3-----2-------3----0--0---| |
G|-------2-------2-------2-----------2------------2-------4--2--1---| |
D|---2-------2-------2-------------0----------2-------4------2--2---| |
A|-0-------------------------2--------------4-------2--------2--2---| |
E|---------4-------2-------0---------------------------------0--0---| |

All the world.....
E|-------4-----------------------1--| |
B|-----4-------4-------4---------4--| |
G|---1-------1---1---1---1-----1----| |
D|-3-------4-----------------3------| |
A|-----------------3-------4--------| |
E|----------------------------------| |
Otros videos de esta canción
    118 exhibiciones
      • ½ Tono
      • Am
      • Bbm
      • Bm
      • Cm
      • C#m
      • Dm
      • Ebm
      • Em
      • Fm
      • F#m
      • Gm
      • G#m
    • Agregar a la lista

    Afinación de cifrado

    Afinador online

      OK