Cifra Club

Take Us Alive

Extreme

Cifrado: Principal (guitarra y guitarra eléctrica)
tono: F# (con acordes en la forma de G) Afinación: Eb Ab Db Gb Bb Eb
E|---------------------|------------------------|
B|---------------------|------------------------|
G|-9p7-0----0h7------0-|-----------0-------0----|
D|-------9-------9-----|-9p7p0h7------7h9-------|
A|---------------------|------------------------|
E|---------------------|------------------------|

E|---------------------|------------------------|
B|---------------------|------------------------|
G|-9p7-0----0h7------0-|----------0-------------|
D|--------9-------9----|-9p7p0h7-------7--7-----|
A|---------------------|------------------------|
E|---------------------|------------------------|

E|---------------------|------------------------|-------------------------|
B|---------------------|------------------------|-------------------------|
G|-9p7-0----0h7------0-|-----------0-------0----|-3h4-0-----0-----0-------|
D|-------9-------9-----|-9p7p0h7------7h9-------|-------3h5---------------|
A|---------------------|------------------------|-------------4h5---1-----|
E|---------------------|------------------------|-----------------------3-|

00:00 / 00:00
Otros videos de esta canción
Repetir
Otros videos de esta canción
Composición de Extreme
Colaboración y revisión:
  • thiago henrique
45 vistas
    • ½ Tono
    • A
    • Bb
    • B
    • C
    • Db
    • D
    • Eb
    • E
    • F
    • F#
    • G
    • Ab
  • Agregar a la lista

    0 comentarios

    Ver todos los comentarios

    ¿Lograste tocar?

    0 Tocaron 0 Aún no

    ¡Graba un video tocando Take Us Alive y envíanoslo!

    00:00 / 00:00
    OK