Cifra Club

Salir

Extremoduro

Cifrado: Principal (guitarra y guitarra eléctrica)
tono: G
  Intro:
E|------------------------------|
B|------------------------------|
G|---------0--------------0-----| (X2)
D|-------0--------------0-------|
A|-----2-------2/3----3------3-0|
E|---3--------------5-----------|

  Punteo intro
E|-----------------------------------------------------------|
B|-----------------------------------------------------------|
G|--------4-2-0h2p0-------0-----------4-2-0h2p0--------------|
D|----2-------------4-2-0---4-0----2-------------4-2-0-------|
A|--3----------------------------3---------------------3-2-0-|
E|-----------------------------------------------------------|


Estrofa 1:


     Tú       harta de tanta duda,
E|---------------------------------|
B|---------------------------------|
G|---------0--------------0--------|
D|-------0--------------0----------|
A|-----2-------2/3----3------3-(0)-|
E|---3--------------5--------------|

    yo        de preguntarle al viento,
E|---------------------------------|
B|---------------------------------|
G|---------0--------------0--------|
D|-------0--------------0----------|
A|-----2-------2/3----3------3-(0)-|
E|---3--------------5--------------|

   tú   ¿que dónde conocí a la luna?
E|-------------------------------|
B|----1------------3-------------|
G|----0------------0-------------|
D|----2------------4-------------|
A|--3-3----------5-5-------------|
E|-------------------------------|

   ¿yo?  ¿que en qué coños ocupo el tiempo?
E|-------------------------------|
B|----1-------------3------------|
G|----0-------------0------------|
D|----2-------------4------------|
A|--3-3-----------5-5------------|
E|-------------------------------|



Estribillo:

    En salir, beber, el rollo de siempre,
E|-----------------------------------------|
B|-----------------------------------------|
G|-----------------------------------------|
D|---------------------------2---------4---|
A|-------2---------3----3-3--3----5-5--5---|
E|--3-3--3----5-5--5-----------------------|

    meterme mil rayas, hablar con la gente,
E|-----------------------------------------|
B|-----------------------------------------|
G|-----------------------------------------|
D|-------5----------4---------2--------4---|
A|--7-7--7-----5-5--5----3-3--3---5-5--5---|
E|-----------------------------------------|

   llegar a la cama y ... ¡joder, que guarrada!
E|---------------------------------------------|
B|---------------------------------------------|
G|---------------------------------------------|
D|-----5----------4------------2------------4--|
A|-----7----------5------------3------------5--|
E|---------------------------------------------|

    sin tí...
E|-----------------------------(7)--|
B|--------5---(5)-------7---(7)-----|
G|--------5------(5)----7---(7)-----|
D|--------5-------------7-----------|
A|--------7-------------9-----------|
E|----------------------------------|



Cambio con guitarra electrica

E|-----------------|-----------------|-----------------|-----------------|
B|-----------------|-----------------|-----------------|-----------------|
G|-----------------|-7-----7-----7---|-5-----5-----5---|-7-----7-----7---|
D|-5-----5-----5---|-7-----7-----7---|-5-----5-----5---|-7-----7-----7---|
A|-5-----5-----5---|-5-x-x-5-x-x-5-x-|-3-x-x-3-x-x-3-x-|-5-x-x-5-x-x-5-x-|
E|-3-x-x-3-x-x-3-x-|-----------------|-----------------|-----------------|




Estrofa 2:

  Voy que ni toco el suelo y espantao hasta las nubes, |
                                                       |-
  no sé si son tus besos o este tripi que me sube.     |
E|--------------------------------------------------------------|
B|-----------------------------------------------------------3--|
G|----------------2----------------------2--------------0----2--|
D|----------------0----------------------0--------------2--0-0--|
A|-----2-------0----0---------2-------0----0----------3-3-------|
E|--3--3-3-----------------3--3-3-------------------------------|

  Ya no macuerdo de na, que todo era de colores.
E|----------------------------------------|
B|-------------------------------------3--|
G|-----------------2---------0---------2--|
D|-------0---------2---------2----0-0--0--|
A|-------2----0-0--0----3-3--3------------|
E|--3-3--3--------------------------------|

    ¿Dónde estarán los besos?   -   se los han quedao las flores.
E|-------------------------------------------------------|
B|----1--------------3-----------------1--------------3--|
G|----0--------------2-----------------0--------------2--|
D|----2-----------0--0-----------------2-----------0--0--|
A|--3-3------------------------------3-3-----------------|
E|-------------------------------------------------------|


Salir, beber, el rollo de siempre,              |
meterme mil rayas, hablar con la gente,         |--- igual ke el estribillo
llegar A A  cama y joder que guarrada sin tí,   |
y al día siguiente...



Estrofa 3:

   Y al llegar a casa         me saludan             |
E|---| las dos son igual
   ¡oye!, ¿dónde vas cabrón?, ¿dónde te has metido?  |

E|----------------------------------------------|
B|----------------------------------------------|
G|-----------------0------------2---------------|
D|----0------------2------------0------------0--|
A|----2------------3-------------------------2--|
E|----3--------------------------------------3--|


te aseguro que no he estao de más, que no he perdido el tiempo,
que lo he gastado en:
E|--------------------------------------------|
B|--------------------------------------------|
G|----------2------------------------------2--|
D|--------2-0------------------------------0--|
A|--------------------------------------3-----|
E|--------------------------------------------|


Salir, beber, el rollo de siempre,             |
meterme mil rayas, hablar con la gente,        |----estribillo
llegar A A  cama y joder que guarrada sin tí,  |
y al día siguiente...



eso es to los solos no tengo ganas de sacarlos ke la cancion
en si ya es mu trabajosa y cansa mucho. Tambien falta la poesia
anke creo ke son las mismas notas ke la estrofa 1 pero con alguna
variacion. Weno ya sabeis ke pa lo ke sea estoy en:
00:00 / 00:00
Otros videos de esta canción
Repetir
Otros videos de esta canción
Compositor no encontrado.
1.254 exhibiciones
    • ½ Tono
    • A
    • Bb
    • B
    • C
    • Db
    • D
    • Eb
    • E
    • F
    • F#
    • G
    • Ab
  • Agregar a la lista
    00:00 / 00:00
    OK