Cifra Club

My Zero

Ezra Furman

Cifrado: Principal (guitarra y guitarra eléctrica)
Selo Cifra Club: esta cifra foi revisada para atender aos critérios oficiais da nossa Equipe de Qualidade.
tono: Ebm
E --> Eb
B --> Bb
G --> Gb
D --> Db
A --> Ab
E --> Eb

Chords used:

Chord   EADGBe (string)
A      (x02220)
Em     (022000)
G      (320033)
D      (xx0232)


   A                 Em                G                 D               
E|-0---0-0---0-0-0-|-0---0-0---0-0-0-|-3---3-3---3-3-3-|-2---2-2---2-2-2-|
B|-2---2-2---2-2-2-|-0---0-0---0-0-0-|-3---3-3---3-3-3-|-3---3-3---3-3-3-|
G|-2---2-2---2-2-2-|-0---0-0---0-0-0-|-0---0-0---0-0-0-|-2---2-2---2-2-2-|
D|-2---2-2---2-2-2-|-2---2-2---2-2-2-|-0---0-0---0-0-0-|-0---0-0---0-0-0-|
A|-0---0-0---0-0-0-|-2---2-2---2-2-2-|-2---2-2---2-2-2-|-x---x-x---x-x-x-|
E|-x---x-x---x-x-x-|-0---0-0---0-0-0-|-3---3-3---3-3-3-|-x---x-x---x-x-x-|

   D   D U   U D U   D   D U   U D U   D   D U   U D U   D   D U   U D U 

Repeat these chords through the whole song.
 
(Riff)
                                   
E|------0-0-2-2-0-0-----------------|-----------0-0---------------------|
B|--2-2-------------3-3-0-3---------|--0-0-3-3------3-3-0-0-------------|
G|----------------------------------|-----------------------2-----------|
D|----------------------------------|-----------------------------------|
A|----------------------------------|-----------------------------------|
E|----------------------------------|-----------------------------------|

"I thought you'd always be...my zero. My zero."



Alternative Version:

You can play this song in normal tuning but it does require bar chords.

Tuning: Normal

Chords used:

Chord   EADGBe (string)
Ab     (466544)
Ebm    (x68876)
Gb     (244322)
Db     (x46664)

   Ab                Ebm               Gb                Db
E|-4---4-4---4-4-4-|-6---6-6---6-6-6-|-2---2-2---2-2-2-|-4---4-4---4-4-4-|
B|-4---4-4---4-4-4-|-7---7-7---7-7-7-|-2---2-2---2-2-2-|-6---6-6---6-6-6-|
G|-5---5-5---5-5-5-|-8---8-8---8-8-8-|-3---3-3---3-3-3-|-6---6-6---6-6-6-|
D|-6---6-6---6-6-6-|-8---8-8---8-8-8-|-4---4-4---4-4-4-|-6---6-6---6-6-6-|
A|-6---6-6---6-6-6-|-6---6-6---6-6-6-|-4---4-4---4-4-4-|-4---4-4---4-4-4-|
E|-4---4-4---4-4-4-|-x---x-x---x-x-x-|-2---2-2---2-2-2-|-x---x-x---x-x-x-|

   D   D U   U D U   D   D U   U D U   D   D U   U D U   D   D U   U D U 

(Riff)
                                   
E|-----------------------------------------------------------------------|
B|-----------------------------------------------------------------------|
G|----------8---8---10--10--8---8----------------------------------------|
D|--10--10--------------------------11--11--8---11-----------------------|
A|-----------------------------------------------------------------------|
E|-----------------------------------------------------------------------|

E|-----------------------------------------------------------------------|
B|-----------------------------------------------------------------------|
G|------------------8---8------------------------------------------------|
D|--8---8---11--11----------11--11--8---8--------------------------------|
A|------------------------------------------11---------------------------|
E|-----------------------------------------------------------------------|
Otros videos de esta canción
    34 exhibiciones
      • ½ Tono
      • Am
      • Bbm
      • Bm
      • Cm
      • C#m
      • Dm
      • Ebm
      • Em
      • Fm
      • F#m
      • Gm
      • G#m
    • Agregar a la lista

    Afinación de cifrado

    Afinador online

      OK