Cifra Club

Atom City Queen

Failure

Cifrado: Principal (guitarra y guitarra eléctrica)
Selo Cifra Club: esta cifra foi revisada para atender aos critérios oficiais da nossa Equipe de Qualidade.
tono: C#m
E|--------------------------|
B|--------------------------|
G|--/11-/12-/10---11--9-----|
D|----------------------11--|
A|--------------------------|
E|-----------------------| R-|x6

E|-----------------------|
B|------0-----0------0---|
G|----6-----6------6---6-|
D|--6-----5------4-------|
A|-----------------------|
E|-----------------------|

E|---------------------------------|
B|------0-------0----0---0-----0---|
G|----5-------6----6---4--4---6----|
D|-/7--------6----5---5-----/7-----|
A|---------------------------------|
E|---------------------------------|

E|-----------------------|
B|------0-----0------0---|
G|----6-----6------6---6-|
D|--6-----5------4-------|
A|-----------------------|
E|-----------------------|

E|---------------------------------|
B|------0-------0----0---0-----0---|
G|----5-------6----6---4--4---6----|
D|-/7--------6----5---5-----/7-----|
A|---------------------------------|
E|---------------------------------|

E|--------------------------|
B|--------------------------|
G|--/11-/12-/10---11--9-----|
D|----------------------11--|
A|--------------------------|
E|-----------------------| R-|x6

E|-----------7(N)--------|
B|---7(| n)--------7(N)----|
G|-------7(N)------------|
D|-----------------------|
A|-----------------------|
E|-----------------------| Rx16

E|-----------------------|
B|-----------------------|
G|-9-(| H)11-9-------------|
D|-----------------------|
A|-----------------------|
E|-----------------------|

E|--------------------------|
B|--------------------------|
G|--/11-/12-/10---11--9-----|
D|----------------------11--|
A|--------------------------|
E|-----------------------| R-|x6

E|--------------------------|
B|--------------------------|
G|------12------11-9--------|
D|----------10-------11-----|
A|--11--11--11--------------|
E|--9---9---9-------------| R-|x5

Solo
E|-----------------------| R-|x2
B|--/9-----------9----------|
G|----/9(b)--9-9---9-8------| (b)
D|--------------------------|
A|--------------------------|
E|--------------------------|

E|-----------------------|
B|-/99999---/14141414----|
G|-----------------------|
D|-----------------------|
A|-----------------------|
E|-----------------------|

E|----11---11---11---11-12--11--------|
B|------------------------------------|
G|-14---14---14---14------------------|
D|------------------------------------|
A|------------------------------------|
E|------------------------------------|

11-12-11-12-11-/9999----|
E|------------------------|
B|---------------------10-| (b)
G|------------------------|
D|------------------------|
A|------------------------|

E|------------------------|
B|--9---------------------|
9---9-8(b)--------------|
E|------------------------|
B|------------------------|
G|------------------------|

Feedback (:08)
            Rx4
E|------------|------------------|
B|------------|------------------|
G|------12----|--11-9------------|
D|----------10|-------11---------|
A|--11--11--11|------------------|
E|--9---9---9--------------------|

E|-----------------------| R-|x4
B|--------------------------|
G|------12------11-9--------|
D|----------10-------11-----|
A|--11--11--11--------------|
E|--9---9---9---------------|

E|--------------------------|
B|--------------------------|
G|--/11-/12-/10---11--9-----|
D|----------------------11--|
A|--------------------------|
E|-----------------------| R-|x6
Otros videos de esta canción
      • ½ Tono
      • Am
      • Bbm
      • Bm
      • Cm
      • C#m
      • Dm
      • Ebm
      • Em
      • Fm
      • F#m
      • Gm
      • G#m
    • Agregar a la lista

    Afinación de cifrado

    Afinador online

      OK