Cifra Club

Dark Speed

Failure

Cifrado: Principal (guitarra y guitarra eléctrica)
Selo Cifra Club: esta cifra foi revisada para atender aos critérios oficiais da nossa Equipe de Qualidade.
tono: F#
[Verse Guitar Riff]
E|-------------------------------------------------|
B|-------------------------------------------------|
G|-------------------------------------------------|
D|------------------4--------4---------------------|
A|----------6---8-------6--8---8--6----------------|
E|-------------------------------------------------|

[Chorus Guitar Riff]
E|-------------------------------------------------|
B|-------------------------------------------------|
G|-----------11--10----11----10--11--13------------|
D|-------13----------------------------------------|
A|-------------------------------------------------|
E|-------------------------------------------------|

E|-------------------------------------------------|
B|-------------------------------------------------|
G|-----------11--10----11----10--11----------------|
D|-------13--------------------------13------------|
A|-------------------------------------------------|
E|-------------------------------------------------|
Otros videos de esta canción
    0 exhibiciones
      • ½ Tono
      • A
      • Bb
      • B
      • C
      • Db
      • D
      • Eb
      • E
      • F
      • F#
      • G
      • Ab
    • Agregar a la lista

    Afinação da cifra

    Afinador online

      Ops (: Contenido disponible solo en portugués.
      OK