Cifra Club

Hot Traveler

Failure

Cifrado: Principal (guitarra y guitarra eléctrica)
Selo Cifra Club: esta cifra foi revisada para atender aos critérios oficiais da nossa Equipe de Qualidade.
tono: Bbm
E|--------------------------------------------| R x2
B|--------------------------------------------|
G|------8(| B)------8(B)------------------------
D|--------------------------------------------|
A|----------------------6(b)------------------|
E|---8-------8-8------------------------------|

E|--------------------------------------------|
B|--------------------------------------------|
G|-----6(b)------6(b)-------------------------|
D|--------------------------------------------|
A|---------------------6(b)-------------------|
E|---6-----6-5--------------------------------|

E|--------------------------------------------|
B|--------------------------------------------|
G|------8(| B)------8(B)------------------------
D|--------------------------------------------|
A|----------------------6(b)------------------|
E|---8-------8-8------------------------------|

E|--------------------------------------------| R x2
B|--------------------------------------------|
G|--------------------------------------------|
D|--------------------------------------------|
A|--------6(b)--------------------------------|
E|---8----------------------------------------|

E|--------------------------------------------| R x2
B|--------------------------------------------|
G|--------------------------------------------|
D|--------------------------------------------|
A|---4(b)---6(b)------------------------------|
E|--------------------------------------------|

E|--------------------------------------------|
B|----11--11--11-11--------------9---9---9----|
G|-------------------10--10--10---------------|
D|----8---8---8--8---10--10--10--11--11--11---|
A|--------------------------------------------|
E|--------------------------------------------|

E|-------------9--9---9--9--9-----9--9--------|
B|----6--6--6---9--9----------------------6-6-6|
G|--------------------------------7--7--------|
D|----7--7--7---8--8---6--6--6-----6--6---7-7-7|
A|----7--7--7---8--8----------------------7-7-7|
E|--------------------------------------------|

E|--------------------------------------------| R x2
B|--------------------------------------------|
G|------8(| B)------8(B)------------------------
D|--------------------------------------------|
A|----------------------6(b)------------------|
E|---8-------8-8------------------------------|

E|--------------------------------------------|
B|--------------------------------------------|
G|-----6(b)------6(b)-------------------------|
D|--------------------------------------------|
A|---------------------6(b)-------------------|
E|---6-----6-5--------------------------------|

E|--------------------------------------------|
B|--------------------------------------------|
G|------8(| B)------8(B)------------------------
D|--------------------------------------------|
A|----------------------6(b)------------------|
E|---8-------8-8------------------------------|

E|--------------------------------------------|
B|----11--11--11-11--------------9---9---9----|
G|-------------------10--10--10---------------|
D|----8---8---8--8---10--10--10--11--11--11---|
A|--------------------------------------------|
E|--------------------------------------------|

E|-------------9--9---9--9--9-----9--9--------|
B|----6--6--6---9--9----------------------6-6-6|
G|--------------------------------7--7--------|
D|----7--7--7---8--8---6--6--6-----6--6---7-7-7|
A|----7--7--7---8--8----------------------7-7-7|
E|--------------------------------------------|

Break: (1:30 -1:47)

E|--------------------------------------------|
B|--------------------------------------------|
G|--------------------------------------------|
D|--------------------------------------------|
A|---6(b)---6(b)----6(b)---4(b)-----6(b)------|
E|--------------------------------------------|

E|--------------------------------------------| R x2
B|--------------------------------------------|
G|------8(| B)------8(B)------------------------
D|--------------------------------------------|
A|----------------------6(b)------------------|
E|---8-------8-8------------------------------|

E|--------------------------------------------|
B|--------------------------------------------|
G|-----6(b)------6(b)-------------------------|
D|--------------------------------------------|
A|---------------------6(b)-------------------|
E|---6-----6-5--------------------------------|

E|--------------------------------------------|
B|--------------------------------------------|
G|------8(| B)------8(B)------------------------
D|--------------------------------------------|
A|----------------------6(b)------------------|
E|---8-------8-8------------------------------|

E|--------------------------------------------|
B|----11--11--11-11--------------9---9---9----|
G|-------------------10--10--10---------------|
D|----8---8---8--8---10--10--10--11--11--11---|
A|--------------------------------------------|
E|--------------------------------------------|

E|-------------9--9---9--9--9-----9--9--------|
B|----6--6--6---9--9----------------------6-6-6|
G|--------------------------------7--7--------|
D|----7--7--7---8--8---6--6--6-----6--6---7-7-7|
A|----7--7--7---8--8----------------------7-7-7|
E|--------------------------------------------|

Mini solo (2:35)
E|--------------------------------------------|
B|--------------------------------------------|
G|--------------------------------------------|
D|---8--10---6--------------------8--10---6---|
A|-----------------8--9--10-------------------|
E|--------------------------------------------|

E|-------------------------------------------|
B|---9-9-9------------------------------------|
G|---7-7-7------------------------------------|
D|---6-6-6-----------8---8---8-----8--10--6---|
A|---------8-9-10---10--10--10----------------|
E|--------------------------------------------|

E|-------------------------------------------| R x2
B|---9-9-9------------------------------------|
G|---7-7-7------------------------------------|
D|---6-6-6-----------8---8---8-----8--10--6---|
A|---------8-9-10---10--10--10----------------|
E|--------------------------------------------|

E|--------------------------------------------|
B|---9-9--------------------------------------|
G|---7-7--------------------------------------|
D|---6-6--------------------------------------|
A|--------8-9-10| (b)--------------------------
E|--------------------------------------------|

2nd break (3:26-3:49)

E|--------------------------------------------| R x2
B|--------------------------------------------|
G|----------------8------6--------------------|
D|--------------------------------------------|
A|--------------------------------------------|
E|---\8--x-8-x8-----8x8x8--------------------|

E|--------------------------------------------|
B|--------------------------------------------|
G|-------8-------6-------8-----8--------------|
D|--------------------------------------------|
A|--------------------------------------------|
E|---6x6----5x5------8x8----8x8---------------|

E|--------------------------------------------| R x2
B|--------------------------------------------|
G|-------8(b)-----6(b)---8(b)-----------------|
D|--------------------------------------------|
A|-------------------------------6(v)---------|
E|----8-------8--------8-----8----------------|

E|--------------------------------------------|
B|--------------------------------------------|
G|-----8(b)---6(b)------6(b)------------------|
D|--------------------------------------------|
A|----------------------------6(v)------------|
E|---6-----6-------5--6-----------------------|

E|--------------------------------------------|
B|--------------------------------------------|
G|-------8(b)-----6(b)---8(b)-----------------|
D|--------------------------------------------|
A|-------------------------------6(v)---------|
E|----8-------8--------8-----8----------------|

E|--------------------------------------------| R x8
B|--------------------------------------------|
G|----------------8---------6-----------------|
D|--------------------------------------------|
A|--------------------------------------------|
E|---\8--x-8-x8-----8x8x8--------------------|
   pm---------    pm---- 

E|--------------------------------------------| R x8
B|--------------------------------------------|
G|----------------8---------6-----------------|
D|--------------------------------------------|
A|--------------------------------------------|
E|---\8--x-8-x8-----8x8x8--------------------|

E|--------------------------------------------|
B|--------------------------------------------|
G|---0----------------------------------------|
D|---0----------------------------------------|
A|---0----------------------------------------|
E|---8-(v)------------------------------------|
(vibrato out)
Otros videos de esta canción
    3 exhibiciones
      • ½ Tono
      • Am
      • Bbm
      • Bm
      • Cm
      • C#m
      • Dm
      • Ebm
      • Em
      • Fm
      • F#m
      • Gm
      • G#m
    • Agregar a la lista

    Afinación de cifrado

    Afinador online

      OK