Cifra Club

Leo

Failure

Cifrado: Principal (guitarra y guitarra eléctrica)
Selo Cifra Club: esta cifra foi revisada para atender aos critérios oficiais da nossa Equipe de Qualidade.
tono: Db
Intro (overdrive)                                                  0:07
E|------------------------------------------------|-------------------|
B|------------------------------------------------|-------------------|
G|-4-4-4-4-4-4--4/-7-7-7-7-7-7--7\-2-2-2-2-2-2--2/|-9--9-7-6--7-7-7-7-|
D|-5-5-5-5-5-5--5/-8-8-8-8-8-8--8\-3-3-3-3-3-3--3/| 10-10-8-7--8-8-8-8-|
A|-5-5-5-5-5-5--5/-8-8-8-8-8-8--8\-3-3-3-3-3-3--3/| 10-10-8-7--8-8-8-8-|
E|------------------------------------------------|-------------------|
    * * * * * *     * * * * * *     * * * * * *
Main verse                                                         0:14
E|------------------------------------------------|-------------------|
B|------------------------------------------------|-------------------|
G|-4-4-4-4-4-4-4-4-7-7-7-7-7-7-7-7-2-2-2-2-2-2-2-2|-9--9-7-6--7-7-7-7-|
D|-5-5-5-5-5-5-5-5-8-8-8-8-8-8-8-8-3-3-3-3-3-3-3-3| 10-10-8-7--8-8-8-8-|
A|-5-5-5-5-5-5-5-5-8-8-8-8-8-8-8-8-3-3-3-3-3-3-3-3| 10-10-8-7--8-8-8-8-|
E|------------------------------------------------|-------------------|

                                                                       0:22
E|------------------------------------------------|-----------------------|
B|------------------------------------------------|-----------------------|
G|-4-4-4-4-4-4-4-4-7-7-7-7-7-7-7-7-2-2-2-2-2-2-2-2|-9--9--9--9--9--9--9--9|
Db|-5-5-5-5-5-5-5-5-8-8-8-8-8-8-8-8-3-3-3-3-3-3-3-3|10-10-10-10-10-10-10-10|
Ab|-5-5-5-5-5-5-5-5-8-8-8-8-8-8-8-8-3-3-3-3-3-3-3-3|10-10-10-10-10-10-10-10|
Eb|------------------------------------------------|-----------------------|

                                                                   0:28
E|------------------------------------------------|-------------------|
B|------------------------------------------------|-------------------|
G|-4-4-4-4-4-4-4-4-7-7-7-7-7-7-7-7-2-2-2-2-2-2-2-2|-9--9-7-6--7-7-7-7-|
D|-5-5-5-5-5-5-5-5-8-8-8-8-8-8-8-8-3-3-3-3-3-3-3-3| 10-10-8-7--8-8-8-8-|
A|-5-5-5-5-5-5-5-5-8-8-8-8-8-8-8-8-3-3-3-3-3-3-3-3| 10-10-8-7--8-8-8-8-|
E|------------------------------------------------|-------------------|

Bridge                                                                                                   0:42
E|--------------------------|------------------------------------------------------------------------------|
B|-----1-1------------------|----1-1-----------------------------------------------------------------------|
G|-----2-2-4--4-4-4-4-4-4-4-|----2-2--9-9-9-9-9-9-9-9-9--4-4-4-4-4-4-4-4-4--2-2-2-2-2-2-2-2-2-2-2-2-2-2-2-2|
D|-2-2-3-3-0--0-0-0-0-0-0-0-| 2-2-3-3--9-9-9-9-9-9-9-9-9--x-x-x-x-x-x-x-x-x--x-x-x-x-x-x-x-x-x-x-x-x-x-x-x-x|
A|-2-2-----2--2-2-2-2-2-2-2-| 2-2------7-7-7-7-7-7-7-7-7--5-5-5-5-5-5-5-5-5--3-3-3-3-3-3-3-3-3-3-3-3-3-3-3-3|
E|-0-0-----3--3-3-3-3-3-3-3-| 0-0------5-5-5-5-5-5-5-5-5--3-3-3-3-3-3-3-3-3--1-1-1-1-1-1-1-1-1-1-1-1-1-1-1-1|

Chorus                                                                                   0:57
E|----------------------------| |--------------------------------------------------------|
B|----------------------------| |--------------------------------------------------------|
G|-2-2------------------------| x3 |-2-2----------------------------------------------------|
D|-x-x--14-14-11--11-11---9--9| |-x-x--14-14-11-11-11-11-11-11-11-11-11-9-9-9-9-9-9-9-9-9|
A|-3-3--12-12--9---9--9---7--7| |-3-3--12-12--9--9--9--9--9--9--9--9--9-7-7-7-7-7-7-7-7-7|
E|-1-1--10-10--7---7--7---5--5| |-1-1--10-10--7--7--7--7--7--7--7--7--7-5-5-5-5-5-5-5-5-5|

Intro                                                              1:05
E|------------------------------------------------|-------------------|
B|------------------------------------------------|-------------------|
G|-4-4-4-4-4-4--4/-7-7-7-7-7-7--7\-2-2-2-2-2-2--2/|-9--9-7-6--7-7-7-7-|
D|-5-5-5-5-5-5--5/-8-8-8-8-8-8--8\-3-3-3-3-3-3--3/| 10-10-8-7--8-8-8-8-|
A|-5-5-5-5-5-5--5/-8-8-8-8-8-8--8\-3-3-3-3-3-3--3/| 10-10-8-7--8-8-8-8-|
E|------------------------------------------------|-------------------|
    * * * * * *     * * * * * *     * * * * * *

Main verse                                                         1:13
E|------------------------------------------------|--------------------|
B|------------------------------------------------|--------------------|
G|-4-4-4-4-4-4-4-4-7-7-7-7-7-7-7-7-2-2-2-2-2-2-2-2|-9--9--9-6--7-7-7-7-|
D|-5-5-5-5-5-5-5-5-8-8-8-8-8-8-8-8-3-3-3-3-3-3-3-3| 10-10-10-7--8-8-8-8-|
A|-5-5-5-5-5-5-5-5-8-8-8-8-8-8-8-8-3-3-3-3-3-3-3-3| 10-10-10-7--8-8-8-8-|
E|------------------------------------------------|--------------------|

                                                                       1:20
E|------------------------------------------------|-----------------------|
B|------------------------------------------------|-----------------------|
G|-4-4-4-4-4-4-4-4-7-7-7-7-7-7-7-7-2-2-2-2-2-2-2-2|-9--9--9--9--9--9--9--9|
Db|-5-5-5-5-5-5-5-5-8-8-8-8-8-8-8-8-3-3-3-3-3-3-3-3|10-10-10-10-10-10-10-10|
Ab|-5-5-5-5-5-5-5-5-8-8-8-8-8-8-8-8-3-3-3-3-3-3-3-3|10-10-10-10-10-10-10-10|
Eb|------------------------------------------------|-----------------------|

                                                                   1:26
E|------------------------------------------------|-------------------|
B|------------------------------------------------|-------------------|
G|-4-4-4-4-4-4-4-4-7-7-7-7-7-7-7-7-2-2-2-2-2-2-2-2|-9--9-7-6--7-7-7-7-|
D|-5-5-5-5-5-5-5-5-8-8-8-8-8-8-8-8-3-3-3-3-3-3-3-3| 10-10-8-7--8-8-8-8-|
A|-5-5-5-5-5-5-5-5-8-8-8-8-8-8-8-8-3-3-3-3-3-3-3-3| 10-10-8-7--8-8-8-8-|
E|------------------------------------------------|-------------------|

Bridge                                                                                                 1:38
E|--------------------------|------------------------------------------------------------------------------|
B|-----1-1------------------|----1-1-----------------------------------------------------------------------|
G|-----2-2-4--4-4-4-4-4-4-4-|----2-2--9-9-9-9-9-9-9-9-9--4-4-4-4-4-4-4-4-4--2-2-2-2-2-2-2-2-2-2-2-2-2-2-2-2|
D|-2-2-3-3-0--0-0-0-0-0-0-0-| 2-2-3-3--9-9-9-9-9-9-9-9-9--x-x-x-x-x-x-x-x-x--x-x-x-x-x-x-x-x-x-x-x-x-x-x-x-x|
A|-2-2-----2--2-2-2-2-2-2-2-| 2-2------7-7-7-7-7-7-7-7-7--5-5-5-5-5-5-5-5-5--3-3-3-3-3-3-3-3-3-3-3-3-3-3-3-3|
E|-0-0-----3--3-3-3-3-3-3-3-| 0-0------5-5-5-5-5-5-5-5-5--3-3-3-3-3-3-3-3-3--1-1-1-1-1-1-1-1-1-1-1-1-1-1-1-1|

Chorus 
E|----------------------------|
B|----------------------------|
G|-2-2------------------------| x3
D|-x-x--14-14-11--11-11---9--9|
A|-3-3--12-12--9---9--9---7--7|
E|-1-1--10-10--7---7--7---5--5|
                                                                                     2:00
E|----------------------------------------------------------------------------------------|
B|----------------------------------------------------------------------------------------|
G|-2-2------------------------------------------------------------------------------------|
D|-x-x--14-14-11-11-11-11-11-11-11-11-11-9-9-9-9-9-9-9-9-9-7-7-7-7-7-7-7-7-7-7-7-7-7-7-7-7|
A|-3-3--12-12--9--9--9--9--9--9--9--9--9-7-7-7-7-7-7-7-7-7-5-5-5-5-5-5-5-5-5-5-5-5-5-5-5-5|
E|-1-1--10-10--7--7--7--7--7--7--7--7--7-5-5-5-5-5-5-5-5-5-3-3-3-3-3-3-3-3-3-3-3-3-3-3-3-3|

Solo (+1 Octave Effect; there's probably a ring mod tuned to G, too)         2:14
E|-----------------------------------------------------------------|
B|-1/9------9------------------------------------------------------|
G|-----9------9------------------------------------------------11~-|
D|-------11-----11--9-11-----11--9-11--9-11-----11--9-11--9-11-----|
A|-----------------------12-----------------12---------------------|
E|-----------------------------------------------------------------|

                                                                           2:28
E|----------------------------------------------------------------------------|
B|-1/9------9-----------------------------------------------------------------|
G|-----9------9------------------------------------------------------------9\-|
D|-------11-----11--9-11-----11--9-11--9-11-----11--9-11-12-11-12-11-12-11----|
A|-----------------------12-----------------12--------------------------------|
E|----------------------------------------------------------------------------|

Chorus 
E|----------------------------|
B|----------------------------|
G|----------------------------| x3
D|------14-14-11--11-11---9--9|
A|-3-3--12-12--9---9--9---7--7|
E|-1-1--10-10--7---7--7---5--5|

                                2:44
E|---------------------------------|
B|---------------------------------|
G|---------------------------------|
D|------14-14-11-11-11-11-11---9--9|
A|-3-3--12-12--9--9--9--9--9---7--7|
E|-1-1--10-10--7--7--7--7--7---5--5|

2nd Guitar: Solo #2 (A whole hell of a lot of distortion and octave
                      effects and ring mod and who knows what else)
E|--------------------------------------------------------------|
B|----17----17--17----17----17-----17--17----17--------17----17-|
G|-17----16--------16----17-----16-------16----17--16-----16----|
D|--------------------------------------------------------------|
A|--------------------------------------------------------------|
E|--------------------------------------------------------------|
   It's difficult to know the exact notes here, but just figure 
   that it's going to be those 3 notes just randomly played in a 
   way that fits the beat. The notes are, most likely, actually
   played on a keyboard like the intro to "Stuck on You."

Chorus Version 2
E|----------------------------|
B|----------------------------|
G|-2-2------------------------| x3
D|-x-x--14-14-11--11-11---9--9|
A|-3-3--12-12--9---9--9---7--7|
E|-1-1--10-10--7---7--7---5--5|

E|---------------|
B|---------------|
G|-2-2-----------|
D|-x-x--14-14-11-|
A|-3-3--12-12--9-|
E|-1-1--10-10--7-|
Otros videos de esta canción
    4 exhibiciones
      • ½ Tono
      • A
      • Bb
      • B
      • C
      • Db
      • D
      • Eb
      • E
      • F
      • F#
      • G
      • Ab
    • Agregar a la lista

    Afinação da cifra

    Afinador online

      Ops (: Contenido disponible solo en portugués.
      OK