Cifra Club

Magnified Segue

Failure

Cifrado: Principal (guitarra y guitarra eléctrica)
Selo Cifra Club: esta cifra foi revisada para atender aos critérios oficiais da nossa Equipe de Qualidade.
tono: F#

Tabbed by - stonedrocker 
at *


Notes: - Eb tuning (every note semi-tone lower = eb Bb Gb Db Ab Eb)
       - the segue is the acoustic part played after the song 'Magnified'.
         This band is really amazing, if you like them you should also 
         check out year of the rabbit and autolux.
  
 
 Intro/Verse/Chorus 1  Guitar 2
|----------------------------------------------------------------|
|----------------------------------------------------------------|
|----------------------------------------------------------------|
|-2/4-4-4-4-4-4-4-2/3-3-3-3-3-3-3/7-7-7-7-7-7-7-7-7-7-7-7-7-7----|
|-2/4-4-4-4-4-4-4-2/3-3-3-3-3-3-3/7-7-7-7-7-7-7-7-7-7-7-7-7-7----|
|-2/4-4-4-4-4-4-4-2/3-3-3-3-3-3-3/7-7-7-7-7-7-7-7-7-7-7-7-7-7----|

  Chorus 1 Guitar 1
|------------------------------------------|
|------------------------------------------|
|---------------------------------4--------|
|-----------------------2-4-5-4-3---3-2----|
|-2-4-5-4-4--2-3-5-3-3---------------------|
|------------------------------------------|

   Interlude 1 Guitar 1/2 - play this a bunch of times, then play Int.2
|--------------------------------------------------------------------------|
|--------------------------------------------------------------------------|
|-11111111111111-10101010101010--------------------------------------------|
|-9-9-9-9-9-9-9--8-8-8-8-8-8-8--11-11-11-11-11-11-11-11-11-11-11-11-11-11--|
|-9-9-9-9-9-9-9--8-8-8-8-8-8-8--11-11-11-11-11-11-11-11-11-11-11-11-11-11--|
|-9-9-9-9-9-9-9--8-8-8-8-8-8-8--11-11-11-11-11-11-11-11-11-11-11-11-11-11--|
                                 p.m xxxxxxxxxxxxxxxxxxxxxxxxxxxxxxxxxxxxxx

   
   Interlude 2 Guitar 1/2
|-----------------------------------------------------------------------|
|-----------------------------------------------------------------------|
|-11111111111111-10101010101010------------------10101010-11111111------|
|-9-9-9-9-9-9-9--8-8-8-8-8-8-8-11-11-11-11-11-11-10101010-11111111------|
|-9-9-9-9-9-9-9--8-8-8-8-8-8-8-11-11-11-11-11-11-8-8-8-8--9-9-9-9-------|
|-9-9-9-9-9-9-9--8-8-8-8-8-8-8-11-11-11-11-11-11------------------------|

  Chorus 2 Guitar 2
|-----------------------------------------------------------------------|
|-----------------------------------------------------------------------|
|-----------------------------------------------------------------------|
|-2/4-4-4-4-4-4-4-2/3-3-3-3-3-3-3/7-7-7-7-7-7-7-10-10-10-10-10-10-10----|
|-2/4-4-4-4-4-4-4-2/3-3-3-3-3-3-3/7-7-7-7-7-7-7-10-10-10-10-10-10-10----|
|-2/4-4-4-4-4-4-4-2/3-3-3-3-3-3-3/7-7-7-7-7-7-7-10-10-10-10-10-10-10----|


  Chorus 2 Guitar 1 - (first time) play this along with the 2nd guitar chorus
then switch to 1st chorus guitar 1 riff
                    - (second time) continue this riff to the end
|--------------------------------------------------------------------------|
|--------------------------------------------------------------------------|
|--------------------------------------------------------------------------|
|-9/11111111111111-9/10101010101010-10/14141414141414-17171717171717-------|
|-7/9-9-9-9-9-9-9--7/8-8-8-8-8-8-8---8/12121212121212/15151515151515-------|
|--------------------------------------------------------------------------|

  Chorus 1 Guitar 1
|------------------------------------------|
|------------------------------------------|
|---------------------------------4--------|
|-----------------------2-4-5-4-3---3-2----|
|-2-4-5-4-4--2-3-5-3-3---------------------|
|------------------------------------------|

  End on
|-------------|
|-------------|
|-9-----------|
|-7-----------|
|-7-----------|
|-7-----------|

It's not very well organised but if you just listen to the song you'll pick it
up automatialy. When the song ends, theres a 15 second pause then the Segue starts. 

so good it should have been a seperate song. Anyways here it is.
  

|---------------------------------------------------1p0------|
|-3-------3-----2-------2-----3-------3-----2-----------0----|
|---0-------0-----0-------0-----0-------0-----0--------------|
|-----0-------0-----0-------0-----0-------0-----0------------|
|-----------------------------2-----2-------2-----2----------|
|-1-----1-------2-----2--------------------------------------|


  
|----------------------------------------------------------|
|-3-------3-----2-------2-----3-------3-----2-------2------|
|---0-------0-----0-------0-----0-------0-----0-------0----|
|-----0-------0-----0-------0-----0-------0-----0----------|
|-----------------------------2-----2-------2-----2--------|
|-1-----1-------2-----2------------------------------------|


   
|-------------------------------------------------------------------5-----|
|-10-------10-----8-------8-----8-------8-----7-------7---6-------8---6---|
|----0--------0-----0-------0-----0-------0-----0-------0---0-----------0-|
|------0--------0-----0-------0-----0-------0-----0-----------0-----------|
|-------------------------------------------------------------------------|
|--8-----8--------8-----8-------7-----7-------7-----7-----6-----6---------|


  
|-8-------------------5--------------|
|---6-----5-------5-----5-----5------|
|-----0-----0-------0-----0-----0----|
|-------------0----------------------|
|------------------------------------|
|-------8-5-----5-----------5--------|

|-------------------------------------------------------------------5-----|
|-10-------10-----8-------8-----8-------8-----7-------7---6-------8---6---|
|----0--------0-----0-------0-----0-------0-----0-------0---0-----------0-|
|------0--------0-----0-------0-----0-------0-----0-----------0-----------|
|-------------------------------------------------------------------------|
|--8-----8--------8-----8-------7-----7-------7-----7-----6-----6---------|

|-8-------------------5-(hold note)-|
|---6-----5-------5-----------------|
|-----0-----0-------0---------------|
|-------------0---------------------|
|-----------------------------------|
|-------8-5-----5-------------------| 

 
|-------------------------------------------------------1p0------|
|-3-------3-----2-------2-----3-------3-----2/3\2-----------1----|
|---0-------0-----0-------0-----0-------0---------0--------------|
|-----0-------0-----0-------0-----0-------0---------0------------|
|-----------------------------2-----2-------2---------2----------|
|-1-----1-------2-----2------------------------------------------|


  
|---------------------------------------------------------------0----|
|-3-------3-----2-------2-----3-------3-----2-------2-----------3----|
|---0-------0-----0-------0-----0-------0-----0-------0-------0------|
|-----0-------0-----0-------0-----0-------0-----0-----------0--------|
|-----------------------------2-----2-------2-----2-------0----------|
|-1-----1-------2-----2---------------------------------1------------|

Just strum the last chord to finish the song. Thats about it, good luck and have fun.


----------------------------------------------------------------------------
Otros videos de esta canción
    247 exhibiciones
      • ½ Tono
      • A
      • Bb
      • B
      • C
      • Db
      • D
      • Eb
      • E
      • F
      • F#
      • G
      • Ab
    • Agregar a la lista

    Afinación de cifrado

    Afinador online

      OK