Cifra Club

Moth

Failure

Cifrado: Principal (guitarra y guitarra eléctrica)
Selo Cifra Club: esta cifra foi revisada para atender aos critérios oficiais da nossa Equipe de Qualidade.
tono: C#m
[Verse 1]
E|------------------------------|
B|---7--7--7--7-----------------|
G|---5--5--4--5-----------------|
D|---7--6--6--6-----------------|
A|---0--0--7--7-----------------|
E|------------------------------| pm , strum each chord x8, play through x16


[Chorus 1]
E|------------------------------|
B|------------------------------|
G|---------9--8--10--4----------|
D|--7--6---9--8--10--4----------|
A|--7--6---7--6--8---2----------|
E|--5--4---7--6--8---2----------| strum each chord x5, play through x4


[Verse 2]
E|------------------------------|
B|---7--7--7--7-----------------|
G|---5--5--4--5-----------------|
D|---7--6--6--6-----------------|
A|---0--0--7--7-----------------|
E|------------------------------| pm , strum each chord x8  play through x8 , then


[Bridge]
E|------------------------------|
B|---------7------------7-------|
G|-------5---5--------5---5-----|
D|-----7-------7----6-------6---|
A|---0-----------0------------0-|
E|------------------------------|

E|--------------------------------|
B|---------7-------------7--------|
G|------4-----4-------5------5----|
D|----6---------6----6---------6--|
A|--7--------------7------------7-|
E|--------------------------------| play clean, and play through x3


[Chorus 2]
E|------------------------------|
B|------------------------------|
G|---------9--8--10--4----------|
D|--7--6---9--8--10--4----------|
A|--7--6---7--6--8---2----------|
E|--5--4---7--6--8---2----------| strum each chord x5, play through x4


[Chorus 3]
E|------------------------------|
B|--7--6---9--8--10--4----------|
G|--0--0---0--0--0---0----------|
D|--7--6---9--8--10--4----------|
A|--5--4---7--6--8---2----------|
E|--5--4---7--6--8---2----------| strum each chord x5, play through x4


[Verse 3]
E|------------------------------|
B|---7--7-----------------------|
G|---5--5-----------------------|
D|---7--6-----------------------|
A|---0--0-----------------------|
E|------------------------------| pm , strum each chord x8 (play through once and then move to ending lead)


Ending Solo 
E|------------------7--16-17-18---|
B|---9b--9b-7-9-10~------------19~|
G|--------------------------------|
D|--------------------------------|
A|--------------------------------|
E|--------------------------------| Ending lead, play through x2 and bend the shit out of first note
Otros videos de esta canción
    2 exhibiciones
      • ½ Tono
      • Am
      • Bbm
      • Bm
      • Cm
      • C#m
      • Dm
      • Ebm
      • Em
      • Fm
      • F#m
      • Gm
      • G#m
    • Agregar a la lista

    Afinação da cifra

    Afinador online

      Ops (: Contenido disponible solo en portugués.
      OK