Cifra Club

Screen Man

Failure

Cifrado: Principal (guitarra y guitarra eléctrica)
Selo Cifra Club: esta cifra foi revisada para atender aos critérios oficiais da nossa Equipe de Qualidade.
tono: Am
Starts @ 3:02
E|-10-----------------------|----10------------------------------|
B|---9-8-9-8-9-8-9-8-9-8----|------9-8-9-8-9-8-9-8-9-8-9/12b-----|
G|-----------------------9~-|---9--------------------------------|
D|--------------------------|------------------------------------|
A|--------------------------|------------------------------------|
E|--------------------------|------------------------------------|

E|--------------------------|------------------------------------|
B|---------10-9-------9-10--|---------------10-9-8---------------|
G|-----7h9----------7-------|-----------7h9----------------------|
D|-7h9----------7h9---------|---7-7-7h9--------------------------|
A|--------------------------|------------------------------------|
E|--------------------------|------------------------------------|

E|--------------------------|------------------------------------|
B|---------10-9-------9-10--|---------------10-9-8~--------------|
G|-----7h9----------7-------|-----------7h9----------------------|
D|-7h9----------7h9---------|-----7-7h9--------------------------|
A|--------------------------|------------------------------------|
E|--------------------------|------------------------------------|


Starts @ 4:57 (slightly different this time around)
E|-10-----------------------|----10------------------------------|
B|---9-8-9-8-9-8-9-8-9-8----|------9-8-9-8-9-8-9/12b-------------|
G|-----------------------9~-|---9--------------------------------|
D|--------------------------|------------------------------------|
A|--------------------------|------------------------------------|
E|--------------------------|------------------------------------|

E|-10-----------------------|----10-------------18b--------------|
B|---9-8-9-8-9-8-9-8-9-8----|------9-8-9-8-9-8-------------------|
G|--------------------------|------------------------------------|
D|--------------------------|------------------------------------|
A|-----------------------8b-|------------------------------------|
E|--------------------------|------------------------------------|

E|--------------------------|------------------------------------|
B|---------10-9-------9-10--|---------------10-9-8---------------|
G|-----7h9----------7-------|-----------7h9----------------------|
D|-7h9----------7h9---------|---7-7-7h9--------------------------|
A|--------------------------|------------------------------------|
E|--------------------------|------------------------------------|

E|--------------------------|------------------------------------|
B|---------10-9-------9-10--|---------------10-9-8~--------------|
G|-----7h9----------7-------|-----------7h9----------------------|
D|-7h9----------7h9---------|---7-7-7h9--------------------------|
A|--------------------------|------------------------------------|
E|--------------------------|------------------------------------|
Otros videos de esta canción
    0 exhibiciones
      • ½ Tono
      • Am
      • Bbm
      • Bm
      • Cm
      • C#m
      • Dm
      • Ebm
      • Em
      • Fm
      • F#m
      • Gm
      • G#m
    • Agregar a la lista

    Afinação da cifra

    Afinador online

      Ops (: Contenido disponible solo en portugués.
      OK