Cifra Club

Segue 1

Failure

Cifrado: Principal (guitarra y guitarra eléctrica)
Selo Cifra Club: esta cifra foi revisada para atender aos critérios oficiais da nossa Equipe de Qualidade.
tono: D
Intro/Verse
1st Guitar (Distortion and Trem-Vibe)                                                          0:17
E|------------------------------------------------------------------------------------------------|
B|------------------------------------------------------------------------------------------------|
G|-9--9------7--7--9--9------7--7--9--9------7--7--9--9------7--7--9--9------7--7--9--9------7--7-|
D|------7--5------------7--5------------7--5------------7--5------------7--5------------7--5------|
A|------------------------------------------------------------------------------------------------|
E|------------------------------------------------------------------------------------------------|

2nd Guitar
E|---------------------------------|
B|---------------------------------|
G|---------------------------------|
D|-7~------------------------------|
A|-5~------------------------------|
E|-0~------------------------------|

                                                                                               0:36
E|------------------------------------------------------------------------------------------------|
B|------------------------------------------------------------------------------------------------|
G|-9--9------7--7--9--9------7--7--9--9------7--7--9--9------7--7--9--9------7--7--9--9------7--7-|
D|------7--5------------7--5------------7--5------------7--5------------7--5------------7--5------|
A|------------------------------------------------------------------------------------------------|
E|------------------------------------------------------------------------------------------------|


1st Guitar (Distortion)                                                    0:48
E|----------------------------------------------------------------------------|
B|----------------8-7---------------8-7-----------------8-7---------------8-7-|
G|----9--9------7-------9--9------7---------9--9------7-------9--9------7-----|
D|--0------7--5-------0------7--5---------0------7--5-------0------7--5-------|
A|--0-----------------0-------------------0-----------------0-----------------|
E|--0-----------------0-------------------0-----------------0-----------------|

2nd Guitar (Distortion and Fast Flanger)
E|----------------------------------------------------------------------------|
B|----------------8-7---------------8-7-----------------8-7---------------8-7-|
G|----9--9------7-------9--9------7---------9--9------7-------9--9------7-----|
D|--0------7--5-------0------7--5---------0------7--5-------0------7--5-------|
A|--0-----------------0-------------------0-----------------0-----------------|
E|--0-----------------0-------------------0-----------------0-----------------|

3rd Guitar (Distortion)
E|----------------------------------------------------------------------------|
B|----------------------------------------------------------------------------|
G|--7~----------------7~------------------9~----------------9~----------------|
D|--7~----------------7~------------------7~----------------7~----------------|
A|--5~----------------5~------------------5~----------------5~----------------|
E|--0~----------------0~------------------0~----------------0~----------------|


1st Guitar (Distortion)                                                    1:00
E|----------------------------------------------------------------------------|
B|----------------8-7---------------8-7-----------------8-7---------------8-7-|
G|----9--9------7-------9--9------7---------9--9------7-------9--9------7-----|
D|--0------7--5-------0------7--5---------0------7--5-------0------7--5-------|
A|--0-----------------0-------------------0-----------------0-----------------|
E|--0-----------------0-------------------0-----------------0-----------------|

2nd Guitar (Distortion and Fast Flanger)
E|----------------------------------------------------------------------------|
B|----------------8-7---------------8-7-----------------8-7---------------8-7-|
G|----9--9------7-------9--9------7---------9--9------7-------9--9------7-----|
D|--0------7--5-------0------7--5---------0------7--5-------0------7--5-------|
A|--0-----------------0-------------------0-----------------0-----------------|
E|--0-----------------0-------------------0-----------------0-----------------|

3rd Guitar (Distortion)
E|----------------------------------------------------------------------------|
B|----------------------------------------------------------------------------|
G|--7~----------------7~------------------9~----------------9~----------------|
D|--7~----------------7~------------------7~----------------7~----------------|
A|--5~----------------5~------------------5~----------------5~----------------|
E|--0~----------------0~------------------0~----------------0~----------------|


1st Guitar (Distortion)                                                  1:13
E|--------------------------------------------------------------------------|
B|----------------8-7---------------8-7---------------8-7---------------8-7-|
G|----9--9------7-------9--9------7-------9--9------7-------9--9------7-----|
D|--0------7--5-------0------7--5-------0------7--5-------0------7--5-------|
A|--0-----------------0-----------------0-----------------0-----------------|
E|--0-----------------0-----------------0-----------------0-----------------|

2nd Guitar (Distortion and Fast Flanger)
E|--------------7-7---------------7-----------------7-----------------7-----|
B|------------------8---------------8-7---------------8-7---------------8-7-|
G|----9--9--------------9--9--------------9--9--------------9--9------------|
D|--0------7--5-------0------7--5-------0------7--5-------0------7--5-------|
A|--0-----------------0-----------------0-----------------0-----------------|
E|--0-----------------0-----------------0-----------------0-----------------|

3rd Guitar (Distortion)
E|--------------------------------------------------------------------------|
B|--------------------------------------------------------------------------|
G|--7~----------------7~----------------9~----------------9~----------------|
D|--7~----------------7~----------------7~----------------7~----------------|
A|--5~----------------5~----------------5~----------------5~----------------|
E|--0~----------------0~----------------0~----------------0~----------------|


1st Guitar (Distortion)                                                  1:25
E|--------------------------------------------------------------------------|
B|----------------8-7---------------8-7---------------8-7---------------8-7-|
G|----9--9------7-------9--9------7-------9--9------7-------9--9------7-----|
D|--0------7--5-------0------7--5-------0------7--5-------0------7--5-------|
A|--0-----------------0-----------------0-----------------0-----------------|
E|--0-----------------0-----------------0-----------------0-----------------|

2nd Guitar (Distortion and Fast Flanger)
E|-----------------------------------------------------------------------------------------------------|
B|----17--17----------20-19----17--17----------20-19----17--17----------20-19----17--17----------20-19-|
G|-----------------19-----------------------19-----------------------19-----------------------19-------|
D|--0-------19--17-----------0-------19--17-----------0-------19--17-----------0-------19--17----------|
A|--0------------------------0------------------------0------------------------0-----------------------|
E|--0------------------------0------------------------0------------------------0-----------------------|

3rd Guitar (Distortion)
E|--------------------------------------------------------------------------|
B|--------------------------------------------------------------------------|
G|--7~----------------7~----------------9~----------------9~----------------|
D|--7~----------------7~----------------7~----------------7~----------------|
A|--5~----------------5~----------------5~----------------5~----------------|
E|--0~----------------0~----------------0~----------------0~----------------|



1st Guitar (Distortion)                                                  1:38
E|--------------------------------------------------------------------------|
B|----------------8-7---------------8-7---------------8-7---------------8-7-|
G|----9--9------7-------9--9------7-------9--9------7-------9--9------7-----|
D|--0------7--5-------0------7--5-------0------7--5-------0------7--5-------|
A|--0-----------------0-----------------0-----------------0-----------------|
E|--0-----------------0-----------------0-----------------0-----------------|

2nd Guitar (Distortion and Fast Flanger)
E|-----------------------------------------------------------------------------------------------------|
B|----17--17----------20-19----17--17----------20-19----17--17----------20-19----17--17----------20-19-|
G|-----------------19-----------------------19-----------------------19-----------------------19-------|
D|--0-------19--17-----------0-------19--17-----------0-------19--17-----------0-------19--17----------|
A|--0------------------------0------------------------0------------------------0-----------------------|
E|--0------------------------0------------------------0------------------------0-----------------------|

3rd Guitar (Distortion)
E|--------------------------------------------------------------------------|
B|--------------------------------------------------------------------------|
G|--7~----------------7~----------------9~----------------9~----------------|
D|--7~----------------7~----------------7~----------------7~----------------|
A|--5~----------------5~----------------5~----------------5~----------------|
E|--0~----------------0~----------------0~----------------0~----------------|


1st Guitar (Distortion)                                                  1:52
E|--------------------------------------------------------------------------|
B|----------------8-7---------------8-7---------------8-7---------------8-7-|
G|----9--9------7-------9--9------7-------9--9------7-------9--9------7-----|
D|--0------7--5-------0------7--5-------0------7--5-------0------7--5-------|
A|--0-----------------0-----------------0-----------------0-----------------|
E|--0-----------------0-----------------0-----------------0-----------------|

2nd Guitar (Distortion and Fast Flanger)
E|-----------------------------------------------------------------------------------------------------|
B|----17--17----------20-19----17--17----------20-19----17--17----------20-19----17--17----------20-19-|
G|-----------------19-----------------------19-----------------------19-----------------------19-------|
D|--0-------19--17-----------0-------19--17-----------0-------19--17-----------0-------19--17----------|
A|--0------------------------0------------------------0------------------------0-----------------------|
E|--0------------------------0------------------------0------------------------0-----------------------|

3rd Guitar (Distortion)
E|--------------------------------------------------------------------------|
B|--------------------------------------------------------------------------|
G|--7~----------------7~----------------9~----------------9~----------------|
D|--7~----------------7~----------------7~----------------7~----------------|
A|--5~----------------5~----------------5~----------------5~----------------|
E|--0~----------------0~----------------0~----------------0~----------------|

| /  slide up
| \  slide down
| h  hammer-on
| p  pull-off
| ~  vibrato
| < > harmonic
| x  Mute note
Otros videos de esta canción
    0 exhibiciones
      • ½ Tono
      • A
      • Bb
      • B
      • C
      • Db
      • D
      • Eb
      • E
      • F
      • F#
      • G
      • Ab
    • Agregar a la lista

    Afinação da cifra

    Afinador online

      Ops (: Contenido disponible solo en portugués.
      OK