Cifra Club

Sergeant Politeness

Failure

Cifrado: Principal (guitarra y guitarra eléctrica)
Selo Cifra Club: esta cifra foi revisada para atender aos critérios oficiais da nossa Equipe de Qualidade.
tono: Db
Intro
Acoustic Guitar                                                     0:07
E|---------------------------------|-----------------------------------|
B|---------------------------------|-----------------------------------|
G|---------------------------------|-----------------------------------|
D|-7-6-0-7-----7---7-----7-----7---|-5-3-0-5-----5---5-----/10------10-|
A|-7-6-0-5-5-5-5-5-5-5-5-5-5-5-5-5-|-5-3-0-3-3-3-3-3-3-3-3-/8-8-8-8-8--|
E|-7-6-0-5-5-5-5-5-5-5-5-5-5-5-5-5-|-5-3-0-3-3-3-3-3-3-3-3-/8-8-8-8-8--|
    * * * * * * * * * * * * * * * *   * * * * * * * * * * *  * * * * * 
                                                                    0:15
E|---------------------------------|-----------------------------------|
B|---------------------------------|-----------------------------------|
G|---------------------------------|-----------------------------------|
D|-7-6-0-7-----7---7-----7-----7---|-5-3-0-5-----5---5-----/10------10-|
A|-7-6-0-5-5-5-5-5-5-5-5-5-5-5-5-5-|-5-3-0-3-3-3-3-3-3-3-3-/8-8-8-8-8--|
E|-7-6-0-5-5-5-5-5-5-5-5-5-5-5-5-5-|-5-3-0-3-3-3-3-3-3-3-3-/8-8-8-8-8--|
    * * * * * * * * * * * * * * * *   * * * * * * * * * * *  * * * * *

(Distortion)                                                          0:23
E|---------------------------------|-------------------------------------|
B|-------7-7-7-7-7-7-7-7-7-7-7-7-7-|-------5-5-5-5-5-5-5-5-/10--10-10-10-|
G|-------7-7-7-7-7-7-7-7-7-7-7-7-7-|-------5-5-5-5-5-5-5-5-/10--10-10-10-|
D|-7-6-0-5-5-5-5-5-5-5-5-5-5-5-5-5-|-5-3-0-3-3-3-3-3-3-3-3-/8---8--8--8--|
A|-7-6-0-5-5-5-5-5-5-5-5-5-5-5-5-5-|-5-3-0-3-3-3-3-3-3-3-3-/8---8--8--8--|
E|-7-6-0-5-5-5-5-5-5-5-5-5-5-5-5-5-|-5-3-0-3-3-3-3-3-3-3-3-/8---8--8--8--|

                                                                      0:31
E|---------------------------------|-------------------------------------|
B|-------7-7-7-7-7-7-7-7-7-7-7-7-7-|-------5-5-5-5-5-5-5-5-/15--15-15-15-|
G|-------7-7-7-7-7-7-7-7-7-7-7-7-7-|-------5-5-5-5-5-5-5-5-/15--15-15-15-|
D|-7-6-0-5-5-5-5-5-5-5-5-5-5-5-5-5-|-5-3-0-3-3-3-3-3-3-3-3-/15--15-15-15-|
A|-7-6-0-5-5-5-5-5-5-5-5-5-5-5-5-5-|-5-3-0-3-3-3-3-3-3-3-3-/13--13-13-13-|
E|-7-6-0-5-5-5-5-5-5-5-5-5-5-5-5-5-|-5-3-0-3-3-3-3-3-3-3-3-/13--13-13-13-|

Verse (Distortion)                                              0:39
E|---------------------------------|-------------------------------|
B|---------------------------------|-------------------------------|
G|---------------------------------|-------------------------------|
D|-7-6-0-7-------------------------|-5-3-0-5-----------------------|
Ab|-7-6-0-5-5-5-5-5-5-5-5-5-5-5-5-5-|-5-3-0-3-3-3-3-3-3-3-3-3-3-3-3-|
Db|-7-6-0-5-5-5-5-5-5-5-5-5-5-5-5-5-|-5-3-0-3-3-3-3-3-3-3-3-3-3-3-3-|
            * * * * * * * * * * * *           * * * * * * * * * * * 

                                                                0:47
E|---------------------------------|-------------------------------|
B|---------------------------------|-------------------------------|
G|---------------------------------|-------------------------------|
D|-7-6-0-7-------------------------|-5-3-0-5-----------------------|
Ab|-7-6-0-5-5-5-5-5-5-5-5-5-5-5-5-5-|-5-3-0-3-3-3-3-3-3-3-3-1-1-1-1-|
Db|-7-6-0-5-5-5-5-5-5-5-5-5-5-5-5-5-|-5-3-0-3-3-3-3-3-3-3-3-1-1-1-1-|
            * * * * * * * * * * * *           * * * * * * * * * * * 

                                                                0:54
E|---------------------------------|-------------------------------|
B|---------------------------------|-------------------------------|
G|---------------------------------|-------------------------------|
D|-7-6-0-7-------------------------|-5-3-0-5-----------------------|
Ab|-7-6-0-5-5-5-5-5-5-5-5-5-5-5-5-5-|-5-3-0-3-3-3-3-3-3-3-3-3-3-3-3-|
Db|-7-6-0-5-5-5-5-5-5-5-5-5-5-5-5-5-|-5-3-0-3-3-3-3-3-3-3-3-3-3-3-3-|
            * * * * * * * * * * * *           * * * * * * * * * * * 

                                                                1:03
E|---------------------------------|-------------------------------|
B|---------------------------------|-------------------------------|
G|---------------------------------|-----------------------3---3-3-|
D|-7-6-0-7-------------------------|-5-3-0-5-----5---5-----3---3-3-|
A|-7-6-0-5-5-5-5-5-5-5-5-5-5-5-5-5-|-5-3-0-3-3-3-3-3-3-3-3-1---1-1-|
E|-7-6-0-5-5-5-5-5-5-5-5-5-5-5-5-5-|-5-3-0-3-3-3-3-3-3-3-3-1---1-1-|
            * * * * * * * * * * * *           * * * * * * *

                                     2nd Guitar
E|--------------------------------|
B|----------------------15--15-15-|
G|----------------------15--15-15-|
D|----------------------13--13-13-|
A|----------------------13--13-13-|
E|----------------------13--13-13-|



Chorus (Distortion)                                           1:11
E|-------------------------------|-------------------------------|
B|-------------10--10-10--9--9-9-|-------------10--10-10--9--9-9-|
G|-------------10--10-10--9--9-9-|-------------10--10-10--9--9-9-|
D|-7-8-9-0--0--8---8--8-0-9--9-9-|-7-8-9-0--0--8---8--8-0-9--9-9-|
A|-7-8-9-0--0--8---8--8-0-7--7-7-|-7-8-9-0--0--8---8--8-0-7--7-7-|
E|-7-8-9-0--0--8---8--8-0-7--7-7-|-7-8-9-0--0--8---8--8-0-7--7-7-|

                                                              1:18
E|-------------------------------|-------------------------------|
B|-------------10--10-10--9--9-9-|-------------10--10-10--9--9-9-|
G|-------------10--10-10--9--9-9-|-------------10--10-10--9--9-9-|
D|-7-8-9-0--0--8---8--8-0-9--9-9-|-7-8-9-0--0--8---8--8-0-9--9-9-|
A|-7-8-9-0--0--8---8--8-0-7--7-7-|-7-8-9-0--0--8---8--8-0-7--7-7-|
E|-7-8-9-0--0--8---8--8-0-7--7-7-|-7-8-9-0--0--8---8--8-0-7--7-7-|

   Verse (Distortion)                                                 1:26
E|---------------------------------|-------------------------------------|
B|-------7-7-7-7-7-7-7-7-7-7-7-7-7-|-------5-5-5-5-5-5-5-5-/10--10-10-10-|
G|-------7-7-7-7-7-7-7-7-7-7-7-7-7-|-------5-5-5-5-5-5-5-5-/10--10-10-10-|
D|-7-6-0-5-5-5-5-5-5-5-5-5-5-5-5-5-|-5-3-0-3-3-3-3-3-3-3-3-/8---8--8--8--|
A|-7-6-0-5-5-5-5-5-5-5-5-5-5-5-5-5-|-5-3-0-3-3-3-3-3-3-3-3-/8---8--8--8--|
E|-7-6-0-5-5-5-5-5-5-5-5-5-5-5-5-5-|-5-3-0-3-3-3-3-3-3-3-3-/8---8--8--8--|

                                                                      1:35
E|---------------------------------|-------------------------------------|
B|-------7-7-7-7-7-7-7-7-7-7-7-7-7-|-------5-5-5-5-5-5-5-5-/15--15-15-15-|
G|-------7-7-7-7-7-7-7-7-7-7-7-7-7-|-------5-5-5-5-5-5-5-5-/15--15-15-15-|
D|-7-6-0-5-5-5-5-5-5-5-5-5-5-5-5-5-|-5-3-0-3-3-3-3-3-3-3-3-/15--15-15-15-|
A|-7-6-0-5-5-5-5-5-5-5-5-5-5-5-5-5-|-5-3-0-3-3-3-3-3-3-3-3-/13--13-13-13-|
E|-7-6-0-5-5-5-5-5-5-5-5-5-5-5-5-5-|-5-3-0-3-3-3-3-3-3-3-3-/13--13-13-13-|



Verse (Distortion)                                              1:43
E|---------------------------------|-------------------------------|
B|---------------------------------|-------------------------------|
G|---------------------------------|-------------------------------|
D|-7-6-0-7-------------------------|-5-3-0-5-----------------------|
Ab|-7-6-0-5-5-5-5-5-5-5-5-5-5-5-5-5-|-5-3-0-3-3-3-3-3-3-3-3-3-3-3-3-|
Db|-7-6-0-5-5-5-5-5-5-5-5-5-5-5-5-5-|-5-3-0-3-3-3-3-3-3-3-3-3-3-3-3-|
            * * * * * * * * * * * *           * * * * * * * * * * * 

                                                                1:50
E|---------------------------------|-------------------------------|
B|---------------------------------|-------------------------------|
G|---------------------------------|-------------------------------|
D|-7-6-0-7-------------------------|-5-3-0-5-----------------------|
Ab|-7-6-0-5-5-5-5-5-5-5-5-5-5-5-5-5-|-5-3-0-3-3-3-3-3-3-3-3-1-1-1-1-|
Db|-7-6-0-5-5-5-5-5-5-5-5-5-5-5-5-5-|-5-3-0-3-3-3-3-3-3-3-3-1-1-1-1-|
            * * * * * * * * * * * *           * * * * * * * * * * * 

                                                                1:58
E|---------------------------------|-------------------------------|
B|---------------------------------|-------------------------------|
G|---------------------------------|-------------------------------|
D|-7-6-0-7-------------------------|-5-3-0-5-----------------------|
Ab|-7-6-0-5-5-5-5-5-5-5-5-5-5-5-5-5-|-5-3-0-3-3-3-3-3-3-3-3-3-3-3-3-|
Db|-7-6-0-5-5-5-5-5-5-5-5-5-5-5-5-5-|-5-3-0-3-3-3-3-3-3-3-3-3-3-3-3-|
            * * * * * * * * * * * *           * * * * * * * * * * * 

                                                                2:06
E|---------------------------------|-------------------------------|
B|---------------------------------|-------------------------------|
G|---------------------------------|-----------------------3---3-3-|
D|-7-6-0-7-------------------------|-5-3-0-5-----5---5-----3---3-3-|
A|-7-6-0-5-5-5-5-5-5-5-5-5-5-5-5-5-|-5-3-0-3-3-3-3-3-3-3-3-1---1-1-|
E|-7-6-0-5-5-5-5-5-5-5-5-5-5-5-5-5-|-5-3-0-3-3-3-3-3-3-3-3-1---1-1-|
            * * * * * * * * * * * *           * * * * * * *

                                     2nd Guitar
E|--------------------------------|
B|----------------------15--15-15-|
G|----------------------15--15-15-|
D|----------------------13--13-13-|
A|----------------------13--13-13-|
E|----------------------13--13-13-|



Chorus (Distortion)                                           2:15
E|-------------------------------|-------------------------------|
B|-------------10--10-10--9--9-9-|-------------10--10-10--9--9-9-|
G|-------------10--10-10--9--9-9-|-------------10--10-10--9--9-9-|
D|-7-8-9-0--0--8---8--8-0-9--9-9-|-7-8-9-0--0--8---8--8-0-9--9-9-|
A|-7-8-9-0--0--8---8--8-0-7--7-7-|-7-8-9-0--0--8---8--8-0-7--7-7-|
E|-7-8-9-0--0--8---8--8-0-7--7-7-|-7-8-9-0--0--8---8--8-0-7--7-7-|

                                                              2:23
E|-------------------------------|-------------------------------|
B|-------------10--10-10--9--9-9-|-------------10--10-10--9--9-9-|
G|-------------10--10-10--9--9-9-|-------------10--10-10--9--9-9-|
D|-7-8-9-0--0--8---8--8-0-9--9-9-|-7-8-9-0--0--8---8--8-0-9--9-9-|
A|-7-8-9-0--0--8---8--8-0-7--7-7-|-7-8-9-0--0--8---8--8-0-7--7-7-|
E|-7-8-9-0--0--8---8--8-0-7--7-7-|-7-8-9-0--0--8---8--8-0-7--7-7-|


Solo
1st Guitar                                                                2:31
E|-------------------------------------|-------------------------------------|
B|-------------------------------------|-------------------------------------|
G|-------------------------------------|-------------------------------------|
D|-7-6-0-7--7/10\8--8-8-8--15--15-15-0-|-5-3-0-5--5/10\9--9-9-9--12--12-12-0-|
A|-7-6-0-5--5/10\8--8-8-8--13--13-13-0-|-5-3-0-3--3/10\7--7-7-7--12--12-12-0-|
E|-7-6-0-5--5/10\8--8-8-8--13--13-13-0-|-5-3-0-3--3/10\7--7-7-7--12--12-12-0-|

2nd Guitar (Flanger)
E|-------------------------------------|-------------------------------------|
B|-------------------------------------|-------------------------------------|
G|------------------12--12----10-------|------------------12--12----10-------|
D|----10-12-10---10--------12----12----|----10-12-10---10--------12----12----|
A|-12----------------------------------|-12----------------------------------|
E|-------------------------------------|-------------------------------------|

1st Guitar                                                                   2:40
E|-------------------------------------|----------------------------------------|
B|-------------------------------------|----------------------------------------|
G|-------------------------------------|----------------------------------------|
D|-7-6-0-7--7/10\8--8-8-8--15--15-15-0-|-5-3-0-5--5/10\9--9-9-9--0--0-0-0-0-0-0-|
A|-7-6-0-5--5/10\8--8-8-8--13--13-13-0-|-5-3-0-3--3/10\7--7-7-7--0--0-0-0-0-0-0-|
E|-7-6-0-5--5/10\8--8-8-8--13--13-13-0-|-5-3-0-3--3/10\7--7-7-7--0--0-0-0-0-0-0-|

2nd Guitar (Flanger)
E|-------------------------------------|----------------------------------------|
B|-------------------------------------|----------------------------------------|
G|------------------12--12----10-------|------------------12--12----10----------|
D|----10-12-10---10--------12----12----|----10-12-10---10--------12----12-12~---|
A|-12----------------------------------|-12-------------------------------------|
E|-------------------------------------|----------------------------------------|

Bridge
1st Guitar                                                                    2:47
E|----------0--------|----------0--------|----------0--------|----------0--------|
B|--------3----------|--------3----------|--------3----------|--------3----------|
G|------0-------0----|------0-------0----|------0-------0----|------0-------0----|
D|----4-------4---4--|----4-------4---4--|----4-------4---4--|----4-------4---4--|
A|--5----------------|--5----------------|--5----------------|--5----------------|
E|-------------------|-------------------|-------------------|-------------------|

2nd Guitar
E|-------------------|-------------------|-------------------|-------------------|
B|----------3--------|----------3--------|----------3--------|----------3--------|
G|------0-------0----|------0-------0----|------0-------0----|------0-------0----|
D|----4---4---4---4--|----4---4---4---4--|----4---4---4---4--|----4---4---4---4--|
A|--5----------------|--5----------------|--5----------------|--5----------------|
E|-------------------|-------------------|-------------------|-------------------|

1st Guitar                                                                    2:56
E|----------0--------|----------0--------|----------0--------|----------0--------|
B|--------3----------|--------3----------|--------3----------|--------3----------|
G|------0-------0----|------0-------0----|------0-------0----|------0-------0----|
D|----4-------4---4--|----4-------4---4--|----4-------4---4--|----4-------4---4--|
A|--5----------------|--5----------------|--5----------------|--5----------------|
E|-------------------|-------------------|-------------------|-------------------|

2nd Guitar
E|-------------------|-------------------|-------------------|-------------------|
B|----------3--------|----------3--------|----------3--------|----------3--------|
G|------0-------0----|------0-------0----|------0-------0----|------0-------0----|
D|----4---4---4---4--|----4---4---4---4--|----4---4---4---4--|----4---4---4---4--|
A|--5----------------|--5----------------|--5----------------|--5----------------|
E|-------------------|-------------------|-------------------|-------------------|

Solo
1st Guitar                                                                                        3:04
E|------------0------------------------------------|------------0------------------------------------|
B|------0-------0---------3-0----------------------|------0-------0---------3-0----------------------|
G|--------4-------4-----4-----4---4----------------|--------4-------4-----4-----4---4----------------|
D|----0-----3---------0---------0------------------|----0-----3---------0---------0------------------|
A|--5---------------2------------------------------|--5---------------2------------------------------|
E|-------------------------------------------------|-------------------------------------------------|

2nd Guitar
E|--------0---------------0------------------------|--------0---------------0------------------------|
B|------0-------0-----------0----------------------|------0-------0-----------0----------------------|
G|----------------------4-----4---4----------------|----------------------4-----4---4----------------|
D|----7-------10-10---0----------------------------|----7-------10-10---0----------------------------|
A|--5-------8-------2-----------2------------------|--5-------8-------2-----------2------------------|
E|-------------------------------------------------|-------------------------------------------------|

1st Guitar                                                                                        3:12
E|------------0------------------------------------|------------0------------------------------------|
B|------0-------0---------3-0----------------------|------0-------0---------3-0----------------------|
G|--------4-------4-----4-----4---4----------------|--------4-------4-----4-----4---4----------------|
D|----0-----3---------0---------0------------------|----0-----3---------0---------0------------------|
A|--5---------------2------------------------------|--5---------------2------------------------------|
E|-------------------------------------------------|-------------------------------------------------|

2nd Guitar
E|--------0---------------0------------------------|--------0---------------0------------------------|
B|------0-------0-----------0----------------------|------0-------0-----------0----------------------|
G|----------------------4-----4---4----------------|----------------------4-----4---4----------------|
D|----7-------10-10---0----------------------------|----7-------10-10---0----------------------------|
A|--5-------8-------2-----------2------------------|--5-------8-------2-----------2------------------|
E|-------------------------------------------------|-------------------------------------------------|


Outro                                                                 3:20
E|-----------------------------------|-----------------------------------|
B|-----------------------------------|-----------------------------------|
Gb|-7-7-7-7-7-7-7-7-7-7-7-7-7-7-7-7-7-|-7-7-7-7-7-7-7-7-7-7-7-7-7-7-7-7-7-|
Db|-0-0-0-0-8-8-8-9-9-9-9-9-9-9-9-9-9-|-0-0-0-0-8-8-8-9-9-9-9-9-9-9-9-9-9-|
E|-----------------------------------|-----------------------------------|
B|-----------------------------------|-----------------------------------|
    * * * * * * * * * * * * * * * * *   * * * * * * * * * * * * * * * * * 

                                        (Distortion)                  3:28
E|-----------------------------------|-----------------------------------|
B|---------------------------10--10--|-0-0-0-0-0-0-0-0-0-0-0-0-0-0-0-0-0-|
Gb|-7-7-7-7-7-7-7-7-7-7-7-7-7-7-7-7-7-|-7-7-7-7-7-7-7-7-7-7-7-7-7-7-7-7-7-|
Db|-0-0-0-0-8-8-8-9-9-9-9-9-9-9-9-9-9-|-0-0-0-0-8-8-8-9-9-9-9-9-9-9-9-9-9-|
E|-----------------------------------|-----------------------------------|
B|-----------------------------------|-----------------------------------|
    * * * * * * * * * * * * * * * * * 

   (Distortion)                                                   3:36
E|---------------------------------|---------------------------------|
B|---------------------------------|---------------------------------|
G|---------------------------------|---------------------------------|
Db|-0-0-0-0-8-8-8-9-9-9-9-9-9-3-3-3-|-0-0-0-0-8-8-8-9-9-9-9-9-9-3-3-3-|
Ab|-0-0-0-0-8-8-8-9-9-9-9-9-9-3-3-3-|-0-0-0-0-8-8-8-9-9-9-9-9-9-3-3-3-|
Db|-0-0-0-0-8-8-8-9-9-9-9-9-9-3-3-3-|-0-0-0-0-8-8-8-9-9-9-9-9-9-3-3-3-|

                                                                  3:44
E|---------------------------------|---------------------------------|
B|---------------------------------|---------------------------------|
G|---------------------------------|---------------------------------|
Db|-0-0-0-0-8-8-8-9-9-9-9-9-9-3-3-3-|-0-0-0-0-8-8-8-9-9-9-9-9-9-3-3-3-|
Ab|-0-0-0-0-8-8-8-9-9-9-9-9-9-3-3-3-|-0-0-0-0-8-8-8-9-9-9-9-9-9-3-3-3-|
Db|-0-0-0-0-8-8-8-9-9-9-9-9-9-3-3-3-|-0-0-0-0-8-8-8-9-9-9-9-9-9-3-3-3-|

                                                                        3:53
E|------------------------------------|------------------------------------|
B|------------------------------------|------------------------------------|
G|------------------------------------|------------------------------------|
Db|-0-0-0-0-8-8-8-9-9-9-9-9-9-10-10-10-|-0-0-0-0-8-8-8-9-9-9-9-9-9-10-10-10-|
E|-0-0-0-0-8-8-8-9-9-9-9-9-9-8--8--8--|-0-0-0-0-8-8-8-9-9-9-9-9-9-8--8--8--|
B|-0-0-0-0-8-8-8-9-9-9-9-9-9-8--8--8--|-0-0-0-0-8-8-8-9-9-9-9-9-9-8--8--8--|

                                                                            4:01
E|------------------------------------|----------------------------------------|
B|------------------------------------|----------------------------------------|
G|------------------------------------|----------------------------------------|
Db|-0-0-0-0-8-8-8-9-9-9-9-9-9-10-10-10-|-0-0-0-0-8-8-8-9-9-9-9-9-9-10-10-10-9-7-|
E|-0-0-0-0-8-8-8-9-9-9-9-9-9-8--8--8--|-0-0-0-0-8-8-8-9-9-9-9-9-9-8--8--8--7-0-|
B|-0-0-0-0-8-8-8-9-9-9-9-9-9-8--8--8--|-0-0-0-0-8-8-8-9-9-9-9-9-9-8--8--8--7-5-|

| /  slide up
| \  slide down
| h  hammer-on
| p  pull-off
| ~  vibrato
| < > harmonic
| x  Mute note
Otros videos de esta canción
    9 exhibiciones
      • ½ Tono
      • A
      • Bb
      • B
      • C
      • Db
      • D
      • Eb
      • E
      • F
      • F#
      • G
      • Ab
    • Agregar a la lista

    Afinação da cifra

    Afinador online

      Ops (: Contenido disponible solo en portugués.
      OK