Cifra Club

Shrine

Failure

Cifrado: Principal (guitarra y guitarra eléctrica)
Selo Cifra Club: esta cifra foi revisada para atender aos critérios oficiais da nossa Equipe de Qualidade.
tono: G
  Intro/Verses:
E|----------------|
B|------------7---|
G|--11----5---7---|
D|--11----5---7---|
A|---9----3---x---|
E|--10----3---7---|


 [1st Chorus @1:11]

  Both Guitars:                                                      -   x2
E|-----------------------------------------------------------------------|
B|----------------------------------------------------7--7---------7--7--|
G|-----------------7---------------------9---------9--7--7----9----7--7--|
D|--------------10---10---------------12---12---------x--x---------x--x--|
A|---------8--------------------10---------------9----9--9--9---9--9--0--|
E|-----8/10---10-----------10/12----12-----------------------------------|



 [2nd Chorus @1:59]

  Left guitar:                                                   x1
E|---------------------------------------------------------------|
B|--------------------------------------------7--7---------7--7--|
G|--------------7----------------9---------9--7--7----9----7--7--|
D|-----------10---10----------12---12---------x--x---------x--x--|
A|------8------------------10------------9----9--9--9---9--9--9--|
E|-8/10---10---------10/12----12---------------------------------|

  Left guitar:                                                        x1
E|--------------------------------------------------------------------|
B|-------------------------------------------------7--7---------7--7--|
G|---------------7------------------------------9--7--7----9----7--7--|
D|------------10---10---------12----10----7--------x--x---------x--x--|
A|-------8-----------------------------------9-----9--9--9---9--9--9--|
E|--8/10---10-----------10/12-----12---12-----------------------------|



  [2nd Chorus @1:59]

  Right Guitar:                                                     x2 
E|------------------------------------------------------------------|
B|-----------------------------------------------7--7---------7--7--|
G|---------------7------------------9---------9--7--7----9----7--7--|
D|------------10---10------------12---12---------x--x---------x--x--|
A|-------8--------------------10------------9----9--9--9---9--9--9--|
E|--8/10---10-----------10/12----12---------------------------------|




  [3rd Chorus @2:47]
                                                                         x4
E|-----------------------------------------------------------------------|
B|----------------------------------------------------7--7---------7--7--|
G|-----------------7---------------------9---------9--7--7----9----7--7--|
D|--------------10---10---------------12---12---------x--x---------x--x--|
A|---------8--------------------10---------------9----9--9--9---9--9--9--|
E|-----8/10---10-----------10/12----12-----------------------------------|


  [End]

    play this out until the end:@3:19
  
  Intro/Verses:
E|----------------|
B|------------7---|
G|--11----9---7---|
D|--11----0---7---|
A|---9----7---x---|
E|--10----9---7---|


  Right Guitar plays this part @3:51
                                                                         x4
E|-----------------------------------------------------------------------|
B|----------------------------------------------------7--7---------7--7--|
G|-----------------7---------------------9---------9--7--7----9----7--7--|
D|--------------10---10---------------12---12---------x--x---------x--x--|
A|---------8--------------------10---------------9----9--9--9---9--9--0--|
E|-----8/10---10-----------10/12----12-----------------------------------|



slide up:        /
slide down:      \
mute:            x
Otros videos de esta canción
    1 exhibiciones
      • ½ Tono
      • A
      • Bb
      • B
      • C
      • Db
      • D
      • Eb
      • E
      • F
      • F#
      • G
      • Ab
    • Agregar a la lista

    Afinación de cifrado

    Afinador online

      OK