Cifra Club

Smoking Umbrellas

Failure

Cifrado: Principal (guitarra y guitarra eléctrica)
Selo Cifra Club: esta cifra foi revisada para atender aos critérios oficiais da nossa Equipe de Qualidade.
tono: F#
Tabbed by: Anki
Email: *


Another masterpiece off Fantastic Planet. Listen to the CD to get the rhythm.
The strumming isn’t exact.

Intro/Verse:

d#|------------------------------------------------------------------------|
A#|--7--8--8--8--xx-7-xx-7-xx-7-xx-7-xx--7--7--7---------------------------|
F#|--7--7--7--7--xx-7-xx-7-xx-7-xx-7-xx--7--7--7---------------------------|
C#|------------------------------------------------------------------------|
G#|------------------------------------------------------------------------|
D#|------------------------------------------------------------------------|

Bass comes in with this awesome riff:

F#|------------------------------------------------------------------------|
C#|--------------------------------------------0-0-------------------------|
G#|----1---1----1----1---1---1---1---1--1(h)3-------3-3--1-1---------------|
D#|--3---3----3----2---2---2---2---2--------------------------2-2----------|

Chorus:

d#|------------------------------------------------------------------------|
A#|------------------------------------------------------------------------|
F#|--10--10--10--10----------------8--8--8--8--8---7--7--x--5--5-----------|
C#|--10--10--10--10---9--9--9--9---8--8--8--8--8---7--7--x--5--5-----------|
G#|--8---8---8---8----9--9--9--9---6--6--6--6--6---5--5--x--3--3-----------|
D#|--8---8---8---8----7--7--7--7---6--6--6--6--6---5--5--x--3--3-----------|

d#|------------------------------------------------------------------------|
A#|------------------------------------------------------------------------|
F#|--10--10--10--10----------------8--8--8--8--8--8---9--9-----------------|
C#|--10--10--10--10---9--9--9--9---8--8--8--8--8--8---9--9-----------------|
G#|--8---8---8---8----9--9--9--9---6--6--6--6--6--6---7--7-----------------|
D#|--8---8---8---8----7--7--7--7---6--6--6--6--6--6---7--7-----------------|


Bridge:
I know there is one more guitar during this part picking a messed up chord. But I
it live.


d#|--13--12----------13--12------------------------------------------------|
A#|----------13--14----------13--14----12--14--10-------12--14--10---------|
F#|------------------------------------------------12---------------12-----|
C#|------------------------------------------------------------------------|
G#|------------------------------------------------------------------------|
D#|------------------------------------------------------------------------|



Guitar 2 comes in with this:

d#|------------------------------------------------------------------------|
A#|------------------------------------------------------------------------|
F#|--10-----8------10------8--8--8--8--8--8---9--9-------------------------|
C#|--10-----8------10------8--8--8--8--8--8---9--9-------------------------|
G#|--8------6------8-------6--6--6--6--6--8---7--7-------------------------|
D#|--8------6------8-------6--6--6--6--6--6---7--7-------------------------|

During the last chorus, guitar 2 just keeps playing this note:

d#|------------------------------------------------------------------------|
A#|--4--4--4--4--4--4--4--4--4--4--4--4--4--4--4--4--4--4--4--4--4--4--4---|
F#|------------------------------------------------------------------------|
C#|------------------------------------------------------------------------|
G#|------------------------------------------------------------------------|
D#|------------------------------------------------------------------------|

The song ends with the bass doing the verse riff, but with these variations:

F#|------------------------------------------------------------------------|
C#|------------------------------------------------------------------------|
G#|----1---1----1----1---1---------4--4--4--4--3--1------------------------|
D#|--3---3----3----2---2---2~~---------------------------------------------|

F#|------------------------------------------------------------------------|
C#|--------------------------3---------------------------------------------|
G#|----1---1----1----1---1-------------------------------------------------|
D#|--3---3----3----2---2---------------------------------------------------|



| /  slide up
| \  slide down
| h  hammer-on
| p  pull-off
| ~  vibrato
| < > harmonic
| x  Mute note


 Mail me with comments or whatever. And please rate.
==========================================================================
Otros videos de esta canción
    34 exhibiciones
      • ½ Tono
      • A
      • Bb
      • B
      • C
      • Db
      • D
      • Eb
      • E
      • F
      • F#
      • G
      • Ab
    • Agregar a la lista

    Afinação da cifra

    Afinador online

      Ops (: Contenido disponible solo en portugués.
      OK