Cifra Club

Stuck On You

Failure

Cifrado: Principal (guitarra y guitarra eléctrica)
Selo Cifra Club: esta cifra foi revisada para atender aos critérios oficiais da nossa Equipe de Qualidade.
tono: Fm
Main Riff
E|---------------------------------------------------------------------------|
B|---------------------------------------------------------------------------|
G|-----------------------------13------------------------------------13------|
D|---15-13-------15-13----------------------15-13--------15-13---------------|
A|----------13------------13-------13---------------13-----------13------13--|
E|---------------------------------------------------------------------------|


E|---------------------------------------------------------------------------|
B|-------------------------------------------14-----------13-----------------|
G|-----------------------------13-----------------12-------------------------|
D|---15-13-------15-13--------------------------------13-------15--13--15-13-|
A|-----------13-----------13--------13---------------------------------------|
E|---------------------------------------------------------------------------|

Chords
E|-----------------------------------------------------------------------|
B|-----------------------------------------------------------------------|
G|---8-8-8-8-8-8-8--8----------------------------6-6-6-6-6-6-6-6---------|
D|---8-8-8-8-8-8-8--8----------------------------6-6-6-6-6-6-6-6---------|
A|---6-6-6-6-6-6-6--6----------------------------4-4-4-4-4-4-4-4---------|
E|-----------------------------------------------------------------------|
Otros videos de esta canción
    54 exhibiciones
      • ½ Tono
      • Am
      • Bbm
      • Bm
      • Cm
      • C#m
      • Dm
      • Ebm
      • Em
      • Fm
      • F#m
      • Gm
      • G#m
    • Agregar a la lista

    Afinação da cifra

    Afinador online

      Ops (: Contenido disponible solo en portugués.
      OK