Cifra Club

Aprenda

Dino vs. Dino

Far From Alaska

Tablatura: Principal (guitarra)
tono: C
Intro: E5  G5

Riff:
   E5  G5  E5  G5  E5  G5  E5
   *   *   *   *   *   *   *     *  *  *  *  *  *  *
E|----------------------------------------------------|  
B|----------------------------------------------------|
G|----------------------------------------------------|
D|-2---5---2---5---2---5---2--------------------------|
A|-2---5---2---5---2---5---2----10-12-10-12-10--------|
E|-0---3---0---3---0---3---0-------------------10-12\-|

(o riff repete durante todo o verso, porém, 
 após a primeira vez o primeiro E5 não é tocado)

 E5        G5    E5          G5           E5
'You're so nice', he said to them a while ago

G5          E5                  riff
Back in the time when they were good to go

E5     G5      E5         G5           E5
'Weird nights' rephrasing what he said before

G5              E5        riff
Twisting words, summoning everyone

E5    G5     E5             G5
You knew I couldn't hold my words

E5            G5        E5  riff
Even though I wanted to

E5    G5       E5             G5
And I knew what I supposed to do

E5           G5             E5 riff
But chose to blame it all on you

Refrão:

E|---------------------------------------------------------|
B|---------------------------------------------------------|
G|---------------------------------------------------------|
D|------2-2-----------2-2-------2-2------------------------|
A|------2-2--5-7-5-7--2-2-------2-2--10-12-10-12-10--------|
E|--3b--0-0-----------0-0-0-3b--0-0-----------------10-12\-|

(Repete tudo)

( Em  E5  D5  A5  C5  B5  G5  F5 )
Colaboración y revision:
  • igor trusz
  • Guilherme Brandão
47 reproducciones
    • ½ Tono
    • A
    • Bb
    • B
    • C
    • Db
    • D
    • Eb
    • E
    • F
    • F#
    • G
    • Ab
  • Adicionar à lista

    0 comentarios

    Ver todos os comentários

    ¿Conseguiste tocar?

    7 Tocaram 0 Ainda não

    Grave um vídeo tocando Dino vs. Dino e nos envie!

    00:00 / 00:00
    outros vídeos desta música
    repetir qualidade Automático
    Outros vídeos desta música
    00:00 / 00:00
    Automático
    OK