Cifra Club

Aprenda

Greyhound

Far From Alaska

Tablatura: Principal (guitarra)
Tom: F
Introdução:

Riff 1
Riff 2
Riff 3
Riff 4
Riff 5


Riff 6  2x  ou Dm
Forget about the things they want you to be
                        Riff 7
Don't change a thing, not again, not again, not again
Riff 6  2x  ou Dm
You just need to exist to make sense, don't you?
                Riff 7
Don't run away, not again, not again, not again

Riff 8  4x  ou Dm
Forget about places they want you to go
Don't change a thing, not again, not again, not again
You just need to remember they don't own you
Don't run away, not again, not again, not again

Riff 9
Riff 1
Riff 3

D5   Dm                    F5   F  
Do do do, do do do your thing
            A5   Am  
Shut their mouths and do your...

Bb5    Bb     A5   A7        Riff 10
It's too late if they think they're gonna hurt you someday
Bb5    Bb     A5   A7        Riff 11
It's too late if they think they're gonna change you
Bb5    Bb     A5   A7        Riff 10
It's too late if they think they're gonna fool you someday
Bb5    Bb     A5   A7    G5   Gm    F5   F  
It's too late

Repete desde o início da letra

Final:

     Bb5        A5         G5   F5  G5 F5 G5 F5   D5  F5     G5  F5 G5 F5 D5 F5 D5 C5 D5
E|------------------------------------------------------------------------------------|
B|------------------------------------------------------------------------------------|
G|--15-15-15---14-14-14---12-12\10-12/14-12-10---7-7/10-10-12---10-12-10--7-10-7--5--7|
D|--15-15-15---14-14-14---------------------------------------------------------------|
A|--13-13-13---12-12-12---10-10\8--10/12-10-8----5-5/8--8--10---8--10-8---5-8--5--3--5|
E|------------------------------------------------------------------------------------|

Riff 1:
E|-----------------------------------------------------|
B|-----------------------------------------------------|
G|--------------------------10-------X-12h14--X-X-12h14|
D|--------------------10-12----------------------------|
A|--------------10h12----------------------------------|
E|---10--/10-13----------------------------------------|

Riff 2:
E|-----------------------------------------------------------|
B|-----------------------------------------------------------|
G|--------------------------10-------------------------------|
D|--------------------10-12-------------------10-12----------|
A|--------------10h12------------------10h12-----------------|
E|---10--/10-13-----------------/10-13-----------------------|

Riff 3:
E|--------------------------------------|
B|-----------------------------------10-|
G|--------------------------10-------12b|
D|--------------------10-12-------------|
A|--------------10-12-------------------|
E|---10--/10-13-------------------------|

Riff 4:
E|----------------------------------------------------------------------|
B|----------------------------------------------------------------------|
G|----------------------------------------------------------------------|
D|----------------------------------------------------------------------|
A|--5-3-5-3-5-3-5-3-5-3-5-3-5-3-5-3-5-3-5-3-5-3-5-3-5-3-5-3-5----0--X--0|
E|----------------------------------------------------------------------|

Riff 5:
E|----------------------------------------------------------------------|
B|----------------------------------------------------------------------|
G|----------------------------------------------------------------------|
D|----------------------------------------------------------------------|
A|--5-3-5-3-5-3-5-3-5-3-5-3-5-3-5-3-5-3-5-3-5-3-5-3-5-3-5-3-5----0-0-0-0|
E|----------------------------------------------------------------------|

Riff 6:
E|----------------------------|
B|----------------------------|
G|----------------------------|
D|--------------10\7----------|
A|--------------------10------|
E|--10-10-10h13-----------10--|

Riff 7:
E|-------------------------|
B|-------------------------|
G|-------------------------|
D|-------------------------|
A|--3h5-3h5---3h5-3h5---3h5|
E|-------------------------|

Riff 8:
E|-------------------------------------------------------------------------------------|
B|-------------------------------------------------------------------------------------|
G|---12-10-12h14b12-10--------12-10-12h14b12-10------12-10-12-10------10----------10---|
D|---------------------12---------------------12-----------------10h12---12--10h12---12|
A|-------------------------------------------------------------------------------------|
E|-------------------------------------------------------------------------------------|

Riff 9:
E|-----------------------------------|
B|-----------------------------------|
G|-----------------------------------|
D|-----------------------------------|
A|---5---5---5---5---5---5---5---5\--|
E|-----------------------------------|

Riff 10:
E|-----------------|
B|-----------------|
G|-----------------|
D|-----------------|
A|-----------------|
E|---3-3p1--3/5-3-1|

Riff 11:
E|-----------------|
B|-----------------|
G|-----------------|
D|-----------------|
A|-----------------|
E|---3-3p1--5-3-1-3|
Compositor Far From Alaska
Colaboración y revision:
  • Ywman
11 reproducciones
    • ½ Tom
    • A
    • Bb
    • B
    • C
    • Db
    • D
    • Eb
    • E
    • F
    • F#
    • G
    • Ab
  • Adicionar à lista

    0 comentarios

    Mostrar mais comentários

    ¿Conseguiste tocar?

    1 Tocaron 0 Ainda não

    Grave um vídeo tocando Greyhound e mande pra gente!

    00:00 / 00:00
    outros vídeos desta música
    repetir qualidade Automático
    Outros vídeos desta música
    00:00 / 00:00
    Automático
    OK